What do you need help on? Cancel X

BOOKMARK
Jump to:
Would you recommend this Guide? Yes No Hide
Send Skip Hide

Armor Guide by _Young-Gamer_

Version: Final | Updated: 03/17/19

 ----------------------------------------------------------------
                              '
                             '''
                            '''''
                           '''''''
                          '''''''''
                         '''''''''''
 ####  #  #   #   #   # ''''####'''#'  #   # ###   #    ##  # #
  # #  #  ##  #  ###  #''''''#'#''###' ##  #  #   ###  # #  # #
  #    #  ##  #  # #  #''''''#''''# #''##  #  #   # #  #    ###
  ##   #  # # #  ### '#''''''##'''###''#'# #  #   ###   ##   #
  #    #  #  ##  # #''#'#''''#''''#'#''#''##  #   # #     #  #
  #    #  #   #  # #''###''''#''''#'#''#'''#  #   # #   ##   #
                  ''''''''''''''''''''''''''
                   ''''#####''''''#####''''
                    '''''#'''''''''# #''''
                     ''''#''''&''''# #'''
                      '''#'''''''''# #''
                       #####''''''#####
 MMMMMMMMMMMMMMMMMMMMMMMMMMMMMMMMMMMMMMMMMMMMMMMMMMMMMMMMMMMMMMMM
 MM  __   __                __   ___   __   __            __   MM
 MM |  \ |__| | | | |\ |   |  | |__   |__  |  | |  | |   |__   MM
 MM |__/ |  | |_|_| | \|   |__| |      __| |__| |__| |__  __|  MM
 MM               -------------------------------              MM
 MMMMMMMMMMMMMMMMMMMMMMMMMMMMMMMMMMMMMMMMMMMMMMMMMMMMMMMMMMMMMMMM
                            '''''''
                             '''''
                              '''
                               '
                               
                          ARMOR GUIDE
 ----------------------------------------------------------------
                            for GBA
                            
            ()=====================================()
            || Final Fantasy I & II: Dawn Of Souls ||
            ||             Guide by                ||
            ||           _Young-Gamer_             ||
            || Email:  abekesora@gmail.com         ||
            || Discord: Gamer-X #3413              ||
            || Facebook: Sora Abeke                ||
            ||                                     ||
            || File Size: 40.72 KB                 ||
            || Current Version: Final              ||
            ()=====================================()
             
 ----------------------------------------------------------------
       _                                                 _
      / \     _____________________________________     / \
     /   \   | If this Guide has help you, click   |   /   \
    /_   _\  | the Yes Option on the Recommendation|  /_   _\
      | |    | Box above. It will be a great help. |    | |
      |_|    |_____________________________________|    |_| 
           
 0---0------------------------------------------------------0---0
 |   |                   TABLE OF CONTENTS                  |   |
 |   |                  +-----------------+                 |   |
 0---0------------------------------------------------------0---0
 |   |   0. VERSION HISTORY                                 |   |
 |   |   I. INTRODUCTION                                    |   |
 |===|======================================================|===|
 |   |                   FINAL FANTASY I                    |   |
 |===|======================================================|===|
 |   |     I. ARMORS                                        |   |
 |   |       i. Helmets                                     |   |
 |   |      ii. Body Armors                                 |   |
 |   |     iii. Gloves                                      |   |
 |   |      iv. Shields                                     |   |
 |===|======================================================|===|
 |   |                  FINAL FANTASY II                    |   |
 |===|======================================================|===|
 |   |     I. ARMORS                                        |   |
 |   |       i. Head                                        |   |
 |   |      ii. Body                                        |   |
 |   |     iii. Arms                                        |   |
 |   |      iv. Shields                                     |   |
 |===|======================================================|===|
 |   |                                                      |   |
 |===|======================================================|===|
 |   |   II. CONCLUSION                                     |   |
 |   |  III. SITES YOU CAN FIND THIS GUIDE                  |   |
 0---0------------------------------------------------------0---0
 |   |                   TABLE OF CONTENTS                  |   |
 |   |                  +-----------------+                 |   |
 0---0------------------------------------------------------0---0

 /\============================================================/\
 ||                    0. VERSION HISTORY                      ||
 \/============================================================\/
 +==============================================================+
 | Version: Final                                               |
 | Date: -                                                      |
 +==============================================================+
 
 Guide Completed!
 
 /\============================================================/\
 ||                      I. INTRODUCTION                       ||
 \/============================================================\/
 Welcome to this Guide for Final Fantasy I & II: Dawn of Souls.
 
 Enjoy!

 ----------------------------------------------------------------
 ==============================================================
 |  ___         __           ___  __       ___  __   __       |
 | |__  | |\ | |__| |       |__  |__| |\ |  |  |__| |__  |_|  |
 | |    | | \| |  | |__     |    |  | | \|  |  |  |  __|  |   |
 |                                                            |
 |                           -----                            |
 |                             |                              |
 |                           -----                            |
 ==============================================================
 
 /\============================================================/\
 ||                         I. ARMORS                          ||
 \/============================================================\/
 This is a list of Armord found in Final Fantasy I in the
 compilation Final Fantasy I & II: Dawn of Souls.


  ,------------------------------------------------------------.
 |                            HELMETS                           |
  `------------------------------------------------------------'
 ----------------------------------------------------------------
 Name: Leather Cap            Job: All jobs
 
 
 
 
 
 Defense: 1
 Evasion: -1
 Weight: 1
 
 Description: A cap made of leather
 ----------------------------------------------------------------
 Name: Ribbon                 Job: All jobs
 
 
 
 
 
 Defense: 1
 Evasion: -1
 Weight: 1
 
 Description: Ribbon that wards off special attacks.
 ----------------------------------------------------------------
 Name: Helm                    Job: Warrior
                                    Knight
                                    Ninja
 
 
 
 Defense: 3
 Evasion: -3
 Weight: 3
 
 Description: A small helm.
 ----------------------------------------------------------------
 Name: Giant Helm             Job: Warrior
                                   Knight
                                   Ninja
 
 
 
 Defense: 5
 Evasion: -5
 Weight: 5
 
 Description: A helm that covers the entire head.
 ----------------------------------------------------------------
 Name: Mythril Helm           Job: Warrior
                                   Knight
                                   Ninja
 
 
 
 
 
 Defense: 6
 Evasion: -3
 Weight: 6
 
 Description: A helm wrought from mythril.
 ----------------------------------------------------------------
 Name: Healing Helm          Job: Knight
                                  Ninja
 
 
 
 
 Defense: 6
 Evasion: -3
 Weight: 6
 
 Description: A helm that casts Heal when used
 ----------------------------------------------------------------
 Name: Diamond Helm           Job: Knight
 
 
 
 
 
 Defense: 8
 Evasion: -3
 Weight: 3
 
 Description: A helm made of diamonds
 ----------------------------------------------------------------
 Name: Twisted Headband       Job: Thief
                                   Ninja
                                   Monk
                                   Master
 
 
 
 
 Defense: 3
 Evasion: 0
 Weight: 1
 
 Description: A headband favored by martial artists.
 ----------------------------------------------------------------
 Name: Feathered Cap          Job: Warrior
                                   Knight
                                   Thief
                                   Ninja
                                   Red Mage
                                   Red Wizard
 
 Defense: 4
 Evasion: 9
 Weight: 1
 
 Description: A light cap woven of silk.
 ----------------------------------------------------------------
 Name: Wizard's Hat            Job: Red Mage
                                    Red Wizard
                                    White Mage
                                    White Wizard
                                    Black Mage
                                    Black Wizard
 
 Defense: 4
 Evasion: -1
 Weight: 1
 
 Description: A traditional hat brimming with magic.
 ----------------------------------------------------------------
 Name: Sage's Mitre           Job: White Mage
                                   White Wizard
                                   Black Mage
                                   Black Wizard
 
 
 
 
 
 Defense: 5
 Evasion: -1
 Weight: 1
 
 Description: A hat made of enchanted cloth.
 ----------------------------------------------------------------
 Name: Black Cowl             Job: Thief
                                   Ninja
 
 
 
 
 Defense: 8
 Evasion: 12
 Weight: 1
 
 Description: Black hood brought from a distant land.
 ----------------------------------------------------------------
 Name: Tiger Mask            Job: Knight
                                  Ninja
                                  Master
 
 
 
 
 Defense: 8
 Evasion: 0
 Weight: 2
 
 Description: A light mask made in a tiger's likeness.
 ----------------------------------------------------------------
 Name: Red Cap                 Job: Red Mage
                                    Red Wizard
 
 
 
 
 
 Defense: 8
 Evasion: 2
 Weight: 1
 
 Description: A cap that awakens latent abilities.
 ----------------------------------------------------------------
 Name: Genji Helm            Job: Warrior
                                  Knight
                                  Thief
                                  Ninja
 
 

 Defense: 9
 Evasion: 12
 Weight: 3
 
 Description: A heavy helm crafted in a distant land.
 ----------------------------------------------------------------
 Name: Crystal Helm         Job: Knight
                                 Ninja
 
 
 
 
 Defense: 10
 Evasion: 12
 Weight: 3
 
 Description: A helm of crystal, crafted long ago.
 ----------------------------------------------------------------
 
  ,------------------------------------------------------------.
 |                         BODY ARMORS                          |
  `------------------------------------------------------------'
 ----------------------------------------------------------------
 Name: Clothes                Job: All jobs
 
 
 
 
 
 Defense: 1
 Evasion: -2
 Weight: 2
 
 Description: Ordinary clothing.
 ----------------------------------------------------------------
 Name: White Robe            Job: White Wizard
 
 
 
 
 
 Defense: 24
 Evasion:-2
 Weight: 2
 
 Description: Casts Invisira when used.
 ----------------------------------------------------------------
 Name: Black Robe            Job: Black Wizard
 
 
 
 
 
 Defense: 24
 Evasion: -2
 Weight: 2
 
 Description: Casts Blizzard when used.
 ----------------------------------------------------------------
 Name: Leather Armor         Job: Warrior
                                  Knight
                                  Thief
                                  Ninja
                                  Monk
                                  Master
                                  Red Mage
                                  Red Wizard
                                  
 Defense: 4
 Evasion: -8
 Weight: 8
 
 Description: Armor made from hardened leather.
 ----------------------------------------------------------------
 Name: Chain Mail            Job: Warrior
                                  Knight
                                  Ninja
                                  Red Mage
                                  Red Wizard
 

 Defense: 15
 Evasion: -15
 Weight: 15
 
 Description: Mail of interwoven chain links.
 ----------------------------------------------------------------
 Name: Mythril Mail          Job: Warrior
                                  Knight
                                  Ninja
                                  Red Mage
                                  Red Wizard
 
 
 Defense: 18
 Evasion: -8
 Weight: 8
 
 Description: Mail crafted from Mythril.
 ----------------------------------------------------------------
 Name: Iron Armor            Job: Warrior
                                  Knight
                                  Ninja
 
 
 
 Defense: 24
 Evasion: -23
 Weight: 23
 
 Description: Armor made of thinly hammered iron.
 ----------------------------------------------------------------
 Name: Knight's Armor        Job: Warrior
                                  Knight
 
 
 
 Defense: 34
 Evasion: -33
 Weight: 33
 
 Description: Armor crafted from steel plate.
 ----------------------------------------------------------------
 Name: Flame Mail             Job: Warrior
                                   Knight
                                   Ninja
 
 
 
 Defense: 34
 Evasion: -10
 Weight: 10
 
 Description: Mail infused with the power of fire.
 ----------------------------------------------------------------
 Name: Ice Armor              Job: Warrior
                                   Knight
                                   Ninja
 
 
 
 
 
 Defense: 34
 Evasion: -10
 Weight: 10
 
 Description: Armor infused with the power of ice.
 ----------------------------------------------------------------
 Name: Diamond Armor          Job: Knight
 
 
 
 
 
 Defense: 42
 Evasion: -10
 Weight: 10
 
 Description: Armor crafted from Diamond
 ----------------------------------------------------------------
 Name: Dragon Mail           Job: Knight
 
 
 
 
 
 Defense: 42
 Evasion: -10
 Weight: 10
 
 Description: Mail fashioned from dragon scales.
 ----------------------------------------------------------------
 Name: Copper Armlet         Job: All jobs
 
 
 
 
 
 Defense: 4
 Evasion: -1
 Weight: 1
 
 Description: An armlet crafted from copper.
 ----------------------------------------------------------------
 Name: Silver Armlet          Job: All jobs
 
 
 
 
 
 Defense: 15
 Evasion: -1
 Weight: 1
 
 Description: An armlet of worked silver.
 ----------------------------------------------------------------
 Name: Ruby Armlet            Job: All jobs
 
 
 
 
 
 Defense: 24
 Evasion: -1
 Weight: 1
 
 Description: An armlet ornamented with rubies.
 ----------------------------------------------------------------
 Name: Diamond Armlet         Job: All jobs
 
 
 
 
 
 Defense: 34
 Evasion: -1
 Weight: 1
 
 Description: 
 ----------------------------------------------------------------
 Name: Bard's Tunic          Job: All jobs
 
 
 
 
 
 Defense: 20
 Evasion: -3
 Weight: 3
 
 Description: A light, loose-fitting tunic.
 ----------------------------------------------------------------
 Name: Red Jacket             Job: Thief
                                   Ninja
                                   Red Mage
                                   Red Wizard
 
 
 
 
 
 Defense: 24
 Evasion: 0
 Weight: 2
 
 Description: A jacket that protects against flame.
 ----------------------------------------------------------------
 Name: Sage's Surplice        Job: Red Mage
                                   Red Wizard
                                   White Mage
                                   White Wizard
                                   Black Mage
                                   Black Wizard
 
 
 Defense: 25
 Evasion: -2
 Weight: 2
 
 Description: A robe that enhances intelligence.
 ----------------------------------------------------------------
 Name: Kenpogi                Job: Monk
                                   Master
 
 
 
 
 Defense: 28
 Evasion: -1
 Weight: 1
 
 Description: An outfit favored by martial artists.
 ----------------------------------------------------------------
 Name: Gaia Gear            Job: Black Mage
                                 Black Wizard
 
 
 
 
 Defense: 35
 Evasion: -2
 Weight: 2
 
 Description: A robe instilled with the earth's grace.
 ----------------------------------------------------------------
 Name: Light Robe            Job: White Mage
                                  White Wizard
 
 
 
 
 Defense: 35
 Evasion: -2
 Weight: 2
 
 Description: A robe imbued with the spirit of light.
 ----------------------------------------------------------------
 Name: Power Vest            Job: Monk
                                  Master
 
 
 
 
 Defense: 38
 Evasion: 0
 Weight: 2
 
 Description: A vest woven with a unique thread.
 ----------------------------------------------------------------
 Name: Black Garb            Job: Thief
                                  Ninja

 
 
 
 Defense: 40
 Evasion: 8
 Weight: 2
 
 Description: Light, durable suit from a distant land.
 ----------------------------------------------------------------
 Name: Genji Armor           Job: Warrior
                                  Knight
                                  Ninja
 
     
 
 
 
 Defense: 35
 Evasion: -7
 Weight: 10
 
 Description: Heavy armor crafted in a distant land.
 ----------------------------------------------------------------
 Name: Crystal Mail           Job: Knight
                                   Ninja
 
 
 
 
 
 Defense: 44
 Evasion: -10
 Weight: 10
 
 Description: Mail of crystal, crafted long ago.
 ----------------------------------------------------------------
 Name: Thief's Armlet         Job: Thief
                                   Ninja
 
 
 
 
 Defense: 30
 Evasion: 4
 Weight: 1
 
 Description: An armlet that enhances agility.
 ----------------------------------------------------------------
 
  ,------------------------------------------------------------.
 |                           GLOVES                             |
  `------------------------------------------------------------'
 ----------------------------------------------------------------
 Name: Leather Gloves         Job: All Jobs
 
 
 
 
 
 Defense: 1
 Evasion: -1
 Weight: 1
 
 Description: Gloves made of leather.
 ----------------------------------------------------------------
 Name: Bronze Gloves          Job: Warrior
                                   Knight
                                   Ninja
 
 
 
 Defense: 2
 Evasion: -3
 Weight: 3
 
 Description: Gloves made of bronze.
 ----------------------------------------------------------------
 Name: Steel Gloves           Job: Warrior
                                   Knight
                                   Ninja
 
 
 
 Defense: 4
 Evasion: -5
 Weight: 5
 
 Description: Gloves made of steel.
 ----------------------------------------------------------------
 Name: Mythril Gloves        Job: Warrior
                                   Knight
                                   Ninja
                                   Red Wizard
 
 
 
 Defense: 6
 Evasion: -3
 Weight: 3
 
 Description: Gloves made of mythril.
 ----------------------------------------------------------------
 Name: Gauntlets            Job: Knight
                                 Ninja
                                 Red Wizard
 
 
 
 Defense: 6
 Evasion: -3
 Weight: 3
 
 Description: Gloves that casts Thundara when used.
 ----------------------------------------------------------------
 Name: Giant's Gloves       Job: Knight
                                 Ninja
                                 Red Wizard
 
 
 
 Defense: 6
 Evasion: -3
 Weight: 3
 
 Description: Gloves that casts Saber when used.
 ----------------------------------------------------------------
 Name: Diamond Gloves       Job: Knight
 
 
 
 
 
 Defense: 8
 Evasion: -3
 Weight: 3
 
 Description: Gloves made of diamond.
 ----------------------------------------------------------------
 Name: Protect Ring          Job: All jobs
 
 
 
 
 Defense: 8
 Evasion: -1
 Weight: 1
 
 Description: Ring that guards against instant death.
 ----------------------------------------------------------------
 Name: Thief Gloves          Job: Thief
                                  Ninja
 
 

 
 Defense: 6
 Evasion: 14
 Weight: 1
 
 Description: Gloves that enhance agility.
 ----------------------------------------------------------------
 Name: Crystal Ring          Job: Knight
                                  Ninja
                                  Master
                                  Red Wizard
 
 
 
 Defense: 9
 Evasion: 4
 Weight: 1
 
 Description: A ring of crystal, crafted long ago.
 ----------------------------------------------------------------
 Name: Genji Gloves          Job: Warrior
                                  Knight
                                  Ninja
 
 
 
 Defense: 9
 Evasion: 13
 Weight: 2
 
 Description: Heavy gloves crafted in a distant land.
 ----------------------------------------------------------------
 Name: Crystal Gloves       Job: Knight
                                 Ninja
 
 
 
 Defense: 10
 Evasion: 12
 Weight: 3
 
 Description: Gloves of crystal, crafted long ago.
 ----------------------------------------------------------------
 
  ,------------------------------------------------------------.
 |                           SHIELDS                            |
  `------------------------------------------------------------'
 ----------------------------------------------------------------
 Name: Leather Shield        Job: Warrior
                                  Knight
                                  Ninja
 
 
 
 Defense: 2
 Evasion: 0
 Weight: 0
 
 Description: A shield made of hardened leather.
 ----------------------------------------------------------------
 Name: Buckler                Job: Warrior
                                   Knight
                                   Thief
                                   Ninja
                                   Red Mage
                                   Red Wizard
 
 
 Defense: 2
 Evasion: 0
 Weight: 0
 
 Description: A small shield.
 ----------------------------------------------------------------
 Name: Iron Shield           Job: Warrior
                                  Knight
                                  Ninja
 
 
 
 Defense: 4
 Evasion: 0
 Weight: 0
 
 Description: A shield wrought from iron.
 ----------------------------------------------------------------
 Name: Mythril Shield        Job: Warrior
                                  Knight
                                  Ninja
 
 
 
 Defense: 8
 Evasion: 0
 Weight: 0
 
 Description: A shield crafted from mythril.
 ----------------------------------------------------------------
 Name: Flame Shield          Job: Warrior
                                  Knight
                                  Ninja
 
 
 
 Defense: 12
 Evasion: 0
 Weight: 0
 
 Description: A shield alive with the power of fire.
 ----------------------------------------------------------------
 Name: Ice Shield            Job: Warrior
                                  Knight
                                  Ninja
 
 
 
 Defense: 12
 Evasion: 0
 Weight: 0
 
 Description: A shield alive with the power of ice.
 ----------------------------------------------------------------
 Name: Diamond Shield         Job: Knight
 
 
 
 
 
 Defense: 16
 Evasion: 0
 Weight: 0
 
 Description: A shield made of diamond.
 ----------------------------------------------------------------
 Name: Aegis Shield           Job: Knight
 
 
 
 
 
 Defense: 16
 Evasion: 0
 Weight: 0
 
 Description: A shield that guards against stone.
 ----------------------------------------------------------------
 Name: Protect Cloak          Job: All expect Monk and Master
 
 
 
 
 
 Defense: 8
 Evasion: -2
 Weight: 2
 
 Description: A large cloak worn over armor.
 ----------------------------------------------------------------
 Name: Genji Shield          Job: Warrior
                                  Knight
                                  Ninja
 
 
 
 Defense: 14
 Evasion: 42
 Weight: 8
 
 Description: Heavy shield crafted in a distant land.
 ----------------------------------------------------------------
 Name: Crystal Shield        Job: Knight
                                  Ninja
 
 
 
 
 Defense: 15
 Evasion: 45
 Weight: 0
 
 Description: A shield of crystal, crafted long ago.
 ----------------------------------------------------------------
 Name: Hero's Shield         Job: Knight
                                  Ninja
 
 
 
 
 Defense: 16
 Evasion: 40
 Weight: 0
 
 Description: Shield that wards off status ailments.
 ----------------------------------------------------------------
 Name: Zephyr Cape           Job: All except Monk and Master
 
 
 
 
 Defense: 4
 Evasion: 9
 Weight: 1
 
 Description: A cape alive with the spirit of wind.
 ----------------------------------------------------------------
 Name: Elven Cloak           Job: All except Monk and Master
 
 
 
 
 Defense: 9
 Evasion: 0
 Weight: 1
 
 Description: A cloak enchanted with elven magic.
 ----------------------------------------------------------------
 
 
 ---------------------------------------------------------------
 ==============================================================
 |  ___         __           ___  __       ___  __   __       |
 | |__  | |\ | |__| |       |__  |__| |\ |  |  |__| |__  |_|  |
 | |    | | \| |  | |__     |    |  | | \|  |  |  |  __|  |   |
 |                                                            |
 |                           ------                           |
 |                            |  |                            |
 |                           ------                           |
 ==============================================================
 
 /\============================================================/\
 ||                          I. ARMORS                         ||
 \/============================================================\/
 Below is a list of armor from Final Fantasy II for the GBA. Prior 
 to the PlayStation version, weapons and shields gave a penalty to 
 Intelligence and Spirit. The PlayStation version and all
 subsequent releases removed this mechanic.

 Similar to weapons, shields have a level of proficiency, or shield
 level. The character's shield level multiplies the evasion 
 percentage given from the equipped shield(s) by (1 + 1x), where
 x = shield level. Shield level experience is obtained by using
 the Attack command with a shield/shields equipped. The amount 
 of proficiency experience gained is based on the number of times 
 the Attack command is used in the battle plus the Rank of the
 enemy formation against the user's shield level.
 
 
  ,------------------------------------------------------------.
 |                             HEAD                             |
  `------------------------------------------------------------'
 -----------------------------------------------------------------
 Name: Leather Cap
 
 
 
 
 Defense: 1
 Evade: -2%
 Magic Defense: 0%
 Int/Spr Penalty: -2
 
 Description: A cap made of leather.
 ----------------------------------------------------------------
 Name: Bronze Helm
 
 
 
 
 Defense: 2
 Evade: -5%
 Magic Defense: 0%
 Int/Spr Penalty: -8
 
 Description: A helm made of bronze.
 ----------------------------------------------------------------
 Name: Mythril Helm
 
 
 
 
 Defense: 4
 Evade: -5%
 Magic Defense: 5%
 Int/Spr Penalty: -8
 
 Description: A helm made of Mythril.
 ----------------------------------------------------------------
 Name: Giant's Helm
 
 
 
 
 Defense: 6
 Evade: -13%
 Magic Defense: 5%
 Int/Spr Penalty: -24
 
 Description: A helm containing the power of giants.
 ----------------------------------------------------------------
 Name: Ribbon
 
 
 
 
 Defense: 10
 Evade: 0%
 Magic Defense: 21%
 Int/Spr Penalty: 0
 
 Description: A ribbon affording protection against all manner of 
              special attacks.
 ----------------------------------------------------------------
 Name: Gold Hairpin
 
 
 
 
 Defense: 11
 Evade: -2%
 Magic Defense: 10%
 Int/Spr Penalty: 0
 
 Description: A golden hairpin resistant to lightning.
 ----------------------------------------------------------------
 Name: Twisted Headband
 
 
 
 
 Defense: 12
 Evade: -2%
 Magic Defense: 5%
 Int/Spr Penalty: -2
 
 Description: A twisted headband that focuses the mind.
 ----------------------------------------------------------------
 Name: Flame Helm
 
 
 
 
 Defense: 13
 Evade: -14%
 Magic Defense: 5%
 Int/Spr Penalty: -26
 
 Description: A fiery helm resistant to ice.
 ----------------------------------------------------------------
 Name: Diamond Helm
 
 
 
 
 Defense: 17
 Evade: -18%
 Magic Defense: 5%
 Int/Spr Penalty: -34
 
 Description: A diamond helm resistant to lightning.
 ----------------------------------------------------------------
 Name: Genji Helm
 
 
 
 
 Defense: 30
 Evade: -31%
 Magic Defense: 10%
 Int/Spr Penalty: -60
 
 Description: A helm boasting the finest defense.
 ----------------------------------------------------------------
 
 
  ,------------------------------------------------------------.
 |                              BODY                            |
  `------------------------------------------------------------'
 
 
 -----------------------------------------------------------------
 Name: Clothes
 
 
 
 
 Defense: 1
 Evade: -5%
 Magic Defense: 0%
 Int/Spr Penalty: -2
 
 Description: Ordinary Clothing.
 ----------------------------------------------------------------
 Name: Power Vest
 
 
 
 
 Defense: 25
 Evade: -5%
 Magic Defense: 5%
 Int/Spr Penalty: -1
 
 Description: A vest that enhances strength.
 ----------------------------------------------------------------
 Name: White Robe
 
 
 
 
 Defense: 30
 Evade: -5%
 Magic Defense: 21%
 Int/Spr Penalty: 0
 
 Description: A white robe that enhances spirit.
 ----------------------------------------------------------------
 Name: Black Robe
 
 
 
 
 Defense: 35
 Evade: -5%
 Magic Defense: 21%
 Int/Spr Penalty: 0
 
 Description: A black robe that enhances intelligence.
 ----------------------------------------------------------------
 Name: Black Garb
 
 
 
 
 Defense: 40
 Evade: 0%
 Magic Defense: 5%
 Int/Spr Penalty: -1
 
 Description: An outfit that enhances agility.
 ----------------------------------------------------------------
 Name: Leather Armor
 
 
 
 
 Defense: 2
 Evade: -6%
 Magic Defense: 0%
 Int/Spr Penalty: -4
 
 Description: Armor made of hardened leather.
 ----------------------------------------------------------------
 Name: Bronze Armor
 
 
 
 
 Defense: 5
 Evade: -14%
 Magic Defense: 0%
 Int/Spr Penalty: -20
 
 Description: Armor made of Bronze.
 ----------------------------------------------------------------
 Name: Mythril Armor
 
 
 
 
 Defense: 10
 Evade: -14%
 Magic Defense: 5%
 Int/Spr Penalty: -20
 
 Description: Armor made of Mythril.
 ----------------------------------------------------------------
 Name: Gold Armor
 
 
 
 
 Defense: 15
 Evade: -19%
 Magic Defense: 5%
 Int/Spr Penalty: -30
 
 Description: Golden armor resistant to poison.
 ----------------------------------------------------------------
 Name: Knight's Armor
 
 
 
 
 Defense: 22
 Evade: -26%
 Magic Defense: 5%
 Int/Spr Penalty: -44
 
 Description: Armor given only to knights.
 ----------------------------------------------------------------
 Name: Flame Armor
 
 
 
 
 Defense: 29
 Evade: -33%
 Magic Defense: 5%
 Int/Spr Penalty: -58
 
 Description: Armor dancing in flame
 ----------------------------------------------------------------
 Name: Ice Armor
 
 
 
 
 Defense: 36
 Evade: -40%
 Magic Defense: 5%
 Int/Spr Penalty: -72
 
 Description: Armor encrusted with ice.
 ----------------------------------------------------------------
 Name: Diamond Armor
 
 
 
 
 Defense: 43
 Evade: -47%
 Magic Defense: 5%
 Int/Spr Penalty: -86
 
 Description: Diamond armor resistant to lightning.
 ----------------------------------------------------------------
 Name: Dragon Armor
 
 
 
 
 Defense: 50
 Evade: -54%
 Magic Defense: 5%
 Int/Spr Penalty: -50
 
 Description: Dragon armor resistant to elemental attacks.
 ----------------------------------------------------------------
 Name: Genji Armor
 
 
 
 
 Defense: 75
 Evade: -79%
 Magic Defense: 10%
 Int/Spr Penalty: -100
 
 Description: Armor boasting the finest defense.
 ----------------------------------------------------------------
 Name: Copper Cuirass
 
 
 
 
 Defense: 5
 Evade: -5%
 Magic Defense: 5%
 Int/Spr Penalty: -1
 
 Description: A breastplate made of copper.
 ----------------------------------------------------------------
 Name: Silver Cuirass
 
 
 
 
 Defense: 10
 Evade: -5%
 Magic Defense: 5%
 Int/Spr Penalty: -1
 
 Description: A breastplate made of silver.
 ----------------------------------------------------------------
 Name: Ruby Cuirass
 
 
 
 
 Defense: 15
 Evade: -5%
 Magic Defense: 5%
 Int/Spr Penalty: -1
 
 Description: A breastplate studded with rubies.
 ----------------------------------------------------------------
 Name: Gold Cuirass
 
 
 
 
 Defense: 22
 Evade: -5%
 Magic Defense: 5%
 Int/Spr Penalty: -1
 
 Description: A breastplate made of gold.
 ----------------------------------------------------------------
 Name: Diamond Cuirass
 
 
 
 
 Defense: 43
 Evade: -5%
 Magic Defense: 5%
 Int/Spr Penalty: -1
 
 Description: A breastplate studded with diamonds.
 ----------------------------------------------------------------
 
  
  ,------------------------------------------------------------.
 |                              ARMS                            |
  `------------------------------------------------------------'
  
 -----------------------------------------------------------------
 Name: Leather Gloves
 
 
 
 
 Defense: 1
 Evade: -3%
 Magic Defense: 0%
 Int/Spr Penalty: -4
 
 Description: Gloves made of leather.
 ----------------------------------------------------------------
 Name: Bronze Gloves
 
 
 
 
 Defense: 3
 Evade: -8%
 Magic Defense: 0%
 Int/Spr Penalty: -24
 
 Description: Gloves made of bronze.
 ----------------------------------------------------------------
 Name: Mythril Gloves
 
 
 
 
 Defense: 6
 Evade: -8%
 Magic Defense: 5%
 Int/Spr Penalty: -24
 
 Description: Gloves made of Mythril.
 ----------------------------------------------------------------
 Name: Thief's Gloves
 
 
 
 
 Defense: 15
 Evade: -3%
 Magic Defense: 5%
 Int/Spr Penalty: -40
 
 Description: Gloves that enhance agility.
 ----------------------------------------------------------------
 Name: Giant's Gloves
 
 
 
 
 Defense: 15
 Evade: -17%
 Magic Defense: 5%
 Int/Spr Penalty: -60
 
 Description: Gloves that enhance strength.
 ----------------------------------------------------------------
 Name: Protection Ring
 
 
 
 
 Defense: 18
 Evade: -3%
 Magic Defense: 21%
 Int/Spr Penalty: 0
 
 Description: A ring affording protection against instant death.
 ----------------------------------------------------------------
 Name: Power Armlet
 
 
 
 
 Defense: 19
 Evade: -3%
 Magic Defense: 5%
 Int/Spr Penalty: -2
 
 Description: An armlet that enhances strength.
 ----------------------------------------------------------------
 Name: Ice Gloves
 
 
 
 
 Defense: 20
 Evade: -22%
 Magic Defense: 5%
 Int/Spr Penalty: -80
 
 Description: Ice-encrusted gloves resistant to fire.
 ----------------------------------------------------------------
 Name: Diamond Gloves
 
 
 
 
 Defense: 25
 Evade: -27%
 Magic Defense: 5%
 Int/Spr Penalty: -100
 
 Description: Diamond-studded gloves resistant to lightning.
 ----------------------------------------------------------------
 Name: Genji Gloves
 
 
 
 
 Defense: 45
 Evade: -47%
 Magic Defense: 10%
 Int/Spr Penalty: -100
 
 Description: Gloves boasting the finest defense.
 ----------------------------------------------------------------
 Name: Bracers
 
 
 
 
 Defense: 30
 Evade: -5%
 Magic Defense: 34%
 Int/Spr Penalty: N/A
 
 Description: Bracers that unleash their wearer's true power.
 ----------------------------------------------------------------
 
 
  ,------------------------------------------------------------.
 |                             SHIELDS                          |
  `------------------------------------------------------------'
  
 -----------------------------------------------------------------
 Name: Buckler
 
 
 
 Evade: 4%
 Int/Spr Penalty: -70
 
 Description: A small shield
 ----------------------------------------------------------------
 Name: Bronze Shield
 
 

 Evade: 5% 
 Int/Spr Penalty: -70
 
 Description: Small shield made of bronze
 ----------------------------------------------------------------
 Name: Mythril Shield
 
 
 
 Evade: 6%
 Int/Spr Penalty: -70
 
 Description: Shield made of Mythril.
 ----------------------------------------------------------------
 Name: Golden Shield
 
 
 
 Evade: 7%
 Int/Spr Penalty: -70
 
 Description: Golden shield resistant to poison 
 ----------------------------------------------------------------
 Name: Ice Shield
 
 
 
 Evade: 7%
 Int/Spr Penalty: -70
 
 Description: Icy shield resistant to fire.
 ----------------------------------------------------------------
 Name: Flame Shield
 
 

 Evade: 7%
 Int/Spr Penalty: -70
 
 Description: Fiery shield resistant to ice.
 ----------------------------------------------------------------
 Name: Diamond Shield
 
 
 
 Evade: 7%
 Int/Spr Penalty: -70
 
 Description: Diamond shield resistant to lightning.
 ----------------------------------------------------------------
 Name: Dragon Shield
 
 
 
 Evade: 9%
 Int/Spr Penalty: -70
 
 Description: Dragon shield resistant to elemental attacks.
 ----------------------------------------------------------------
 Name: Aegis Shield
 
 

 Evade: 10%
 Int/Spr Penalty: -70
 
 Description: Legendary shield that affords protection against
              special attacks.
 ----------------------------------------------------------------
 
 ----------------------------------------------------------------
 
 /\============================================================/\
 ||                        II. CONCLUSION                      ||
 \/============================================================\/
 This Guide has come to its end.
 
 Special Thanks to:
 
 - GameFaq
 
 - You
 
 - Me
 
 - My Device
 
 - Makers and Publisher of the Game
 
 - My GBA (Gameboy Advance)
 
 /\============================================================/\
 ||            III. SITES YOU CAN FIND THIS GUIDE              ||
 \/============================================================\/
 The following sites below are where you can legally find this
 Work. If you find this Work in any other sites. Please PM me.
 
 - GameFaq
 =================================================================
   _  _  __   _  _  __ _   ___        ___   __   _  _  ____  ____       
  ( \/ )/  \ / )( \(  ( \ / __) ___  / __) / _\ ( \/ )(  __)(  _ \      
   )  /(  O )) \/ (/    /( (_ \(___)( (_ \/    \/ \/ \ ) _)  )   / 
  (__/  \__/ \____/\_)__) \___/      \___/\_/\_/\_)(_/(____)(__\_)

                           GAMING IS LIFE
                           --------------

View in: