What do you need help on? Cancel X

BOOKMARK
Jump to:
Would you recommend this Guide? Yes No Hide
Send Skip Hide

FAQ/Move List by striker64

Version: Final | Updated: 10/09/02

**************************
~ * LEGENDS OF WRESTLING * ~
**************************
By striker64
Platform: Nintendo GameCube
Complete Movelist/FAQ
Final Version
Started: Friday, July 26, 2002
First sent in: Monday, August 14, 2002
Completed: Thursday, October 9, 2002
E-mail: striker64faq@lycos.com

  0===================0
 / Table of Contents /|
0===================0 0
| Table of Contents |/
0===================0
1)	Introduction
2)	Version History
3)	Description of Wrestlers
4)	Hidden Wrestlers
5)	Movelist
6)	Create-A-Legend
7)	Frequently Asked Questions
8)	Credits
9)	Copyright Notice
10)	Disclaimer

  0==================0
 / 1.) Introduction /|
0==================0 0
| 1.) Introduction |/
0==================0

Welcome to the Legends of Wrestling!  I noticed that this game had been out
on GameCube for a few months and still no FAQ, so I took it upon myself to
write one.  This will be my fourth FAQ, the third one to actually be worth
anything, and it is my hope that it will help you out greatly as you make
your way through Legends Of Wrestling.  Enjoy!  E-mail all questions and
comments to striker64faq@lycos.com.

A NOTE ABOUT PRINTING: This FAQ is 119 pages long.  If you want a completely
shot ink cartridge, go for it.

  0=====================0
 / 2.) Version History /|
0=====================0 0
| 2.) Version History |/
0=====================0

 - Final Version, 10/09/02 - Refined some CALs, and changed the heading.
This will be the last update to this guide, now I await Legends of Wrestling
II to make my FAQ for it.
 - Version 0.9, 09/08/02 - Completed the movelist and added some CALs.  I
don't know how many more updates will come, maybe more CALs, maybe not.
 - Version 0.8, 09/06/02 - A nice, big, fat update.  Completed up to and
including the Sheik, meaning there are only 12 left to do, yay.  Oh, and, if
anyone has any good CALs they want to send in, send them to me, and I'll
check them out.  If they are good, I'll add them here.
 - Version 0.7, 09/03/02 - Super Mario Sunshine = bad for getting FAQ work
done.  Completed movelist up to and including Harley Race.  Also tried a new
format for sub-headings... let me know what you think.
 - Version 0.6, 08/30/02 - Completed all wrestler descriptions.  Will have
more movelists after this weekend.
 - Version 0.5, 08/29/02 - Added another large chunk of wrestler
descriptions, almost complete.  I hope to finish this and have it sent in by
tomorrow.
- Version 0.4, 08/29/02 - Added a CAL section and a few more wrestler
descriptions.
- Version 0.3, 08/27/02 - Added King Kong Bundy and Koko B. Ware to the
movelist, plus some more descriptions.
 - Version 0.2, 08/14/02 - Fixed some mistakes I didn't realize were there
until after I sent it in.  Oops.
- Version 0.1, 08/14/02 - First release of this file.  Complete movelist of
first 16 characters as seen on the character select screen, incomplete
wrestler descriptions at the first date of sending this in.

  0==============================0
 / 3.) Description of Wrestlers /|
0==============================0 0
| 3.) Description of Wrestlers |/
0==============================0

Old school wrestling is where my passion for the sport lies.  So, in this
section I will give you a brief description of each wrestler.  Most of this
information is taken directly from my mind from watching countless classic
WWF tapes, but any information derived from an outside source shall be cited.
Most of this will also be from each wrestler's career in the WWF, as that is
where my main focus always lied.  I will do my best to touch up on other
federations each wrestler has been in.

If you see a mistake of fact, please e-mail me.  Please also provide some
sort of documentation to back up what you say.  If I confirm what you say,
I'll add it here and credit you.

~Hulk Hogan~
This superstar's name has been synonymous with wrestling in general.
Everyone has at least heard of Hulk Hogan, and he is perhaps the most widely
known and respected superstar in the history of wrestling.  When you think
Hulk Hogan, you must also think Andre the Giant (R.I.P.).  These two monsters
collided numerous times over the years.  One could probably write an entire
FAQ on Hogan's illustrious career, but I'll just hit the high points and save
his whole career for the special Hulkamania magazine.  Honestly and
truthfully, I thought Hogan was one of the most -annoying- superstars back in
his prime because he was so predictable: opponent uses finisher, Hogan kicks
out after 2-count, runs around the ring with his body trembling while getting
beat on, then points to the opponent, punch, punch, punch, Irish Whip, Big
Boot, Hogan Legdrop, pin, Hogan wins.  However, I admire the man for being
who he is, and that's why I'm even bothering to take the time to do this
segment.

Terry Bollea began with wrestling in the NWA, and shortly after captured his
first title under the name Sterling Golden.  Despite his limited experience,
his reputation as a powerhouse spread like mad.  Vincent J. McMahon, father
of the current Vince McMahon, brought Sterling to the WWF in 1979.  McMahon
dubbed Sterling "Hulk Hogan," and the rest, as we know it, is history.

Hogan debuted at New York's Madison Square Garden and pinned Ted DiBiase.  On
the night of August 9, 1980, Hogan first clashed with Andre the Giant.  Hogan
secured his position as one of the most powerful men to ever compete when he
lifted and slammed the 500-pounder.  There's nothing fake about that,
folks... wrestling itself may be fake, but you can't fake slamming a 500-
pounder.  Hogan was under the management of "Classy" Freddy Blassie at the
time.

In 1983, the Iron Sheik defeated then-champion Bob Backlund for the title,
and a new generation was born.  Hogan promptly challenged the Sheik, and
pinned him after a Legdrop in just over 5 minutes.  Hogan had earned his
ticket to Wrestlemania, and at the very first Wrestlemania, he, along with
his tag team partner Mr. T, defeated Rowdy Roddy Piper and Paul Orndorff.  In
one of his most historic battles, he slammed 450+ lbs King Kong Bundy, with
injured ribs, in a steel cage match to retain his title at Wrestlemania II.
At Wrestlemania III, Hogan had his most famous clash with Andre the Giant,
slamming the 520+ lbs and Legdropping him to retain his title once again.
Later that year, at a Friday night show called "The Main Event," a referee
was paid off to give Andre the win and the title over Hogan.  The referee's
decision could not be overturned, but since Hogan's shoulder was clearly up
before the count of 3, the title was declared vacant and a tournament was
held at Wrestlemania IV.  Hogan didn't win; he and Andre instead were both
disqualified in Round 2. (Macho Man won the tournament.) He formed a bond
with the Macho Man and they formed a new tag team, the Mega Powers.  However,
later that year distrust arose, and the Macho Man broke away.  Hogan
challenged the Macho Man for his belt, and regained the belt at Wrestlemania
V.  At Wrestlemania VI, in the biggest match in the history of the WWF
(indeed, it remained as such until Wrestlemania XVIII with Hogan vs. Rock),
the Ultimate Warrior captured the title from Hogan and led the WWF into a new
generation.  At the Royal Rumble the next year, Sgt. Slaughter took the title
from the Warrior (with the help of the Macho King), and Hogan won the Rumble.
At Wrestlemania VII, Hogan regained the title.  Soon after, the newcomer to
the WWF, the Undertaker, began stalking Hogan.  At the 1991 Survivor Series,
the two clashed, and thanks to Ric Flair, the Undertaker won the bout.
Officials were outraged by the way they lost control of the match, and a
rematch was ordered for 6 days later.  Hogan won back the title, but under
highly controversial circumstances, and the title was again declared vacant.
(The vacancy was to be filled by the 1992 Royal Rumble - the winner would
become the champion.  Ric Flair won.) At Wrestlemania VIII, Hogan had what
was to be his final match in the WWF against Sid Vicious.  He was forced out
of retirement when Money Inc. assaulted his friend, Brutus Beefcake.  Hogan
came back and formed a tag team with him, and they were managed by Money
Inc.'s former manager, Jimmy Hart.  They challenged Money Inc. for their Tag
Team titles at Wrestlemania IX, but lost via disqualification.  Rather than
leaving, Hogan stuck around to watch the main event, where challenger
Yokozuna (R.I.P.) threw salt in the eyes of WWF Champion Bret Hart and pinned
him for the victory.  Hogan came to protest, and Mr. Fuji dared Hogan to
challenge Yokozuna for the title right then and there.  He did, and Hogan won
the title for a fifth time, a record that was not broken until one year ago
by the Rock.  Due to this match, Yokozuna had the shortest title reign in
history - approximately 180 seconds, or just 3 minutes.  At the King of the
Ring, Hogan defended against Yokozuna and lost due to a mysterious
photographer who took a picture and a fireball burned Hogan's face.  Hogan
was discouraged and left for WCW, where he won the WCW World Title 6 times,
then returned to the WWF with Kevin Nash and Scott Hall as the NOW when the
two federations merged.

I'll stop there for Hogan, as most everyone knows the rest.  The remainder of
the descriptions will be much more brief, unless there's someone I'm
passionate about.

~Bret "Hitman" Hart~
No superstar has led a career quite like Bret Hart's.  He arrived in the mid-
80s with his partner, Jim "the Anvil" Neidhart, and together they made up the
Hart Foundation.  They were pretty greatly disliked.  All this changed at
Wrestlemania IV when, at an invitational battle royal, Bad News Brown and
Bret Hart were the final two in the ring, and Bad News turned on Bret.  Bret
re-entered the ring after the presentation of the trophy to Bad News and
destroyed it, and the Hart Foundation was remembered for it.  Together they
won the Tag Team Title on 2 separate occasions.  They lost their second title
at Wrestlemania VII to the Nasty Boys, and Jim split away.  Bret continued in
singles competition and won the Intercontinental Championship on two
occasions, winning it the second time from Rowdy Roddy Piper at Wrestlemania
VIII.  He lost it to his brother-in-law British Bulldog Davey Boy Smith, but
went on to defeat Ric Flair for the WWF Championship, making him the first
superstar to ever have the "Triple Crown," or to ever hold all 3 titles.  He
became one of the most celebrated champions in history, as he was a fighting
champion.  He took on all comers, but lost his title at Wrestlemania IX to
Yokozuna.  He regained it from the mammoth at Wrestlemania X, where old
friend Piper was the special guest referee.  He lost it to Diesel but
eventually won it back.  He lost his fourth title in a questionable match to
Shawn Michaels in 1997, and decided to leave for WCW.  There, he won the WCW
World Championship 7 times before having to leave wrestling for good in 2000
after a concussion.

~Terry Funk~
Funk started wrestling in 1965.  In 1968, in Amarillo, Texas, with his
brother Dory Funk, Jr., he won the Amarillo Tag Team titles.  At this point,
he was invited to join the NWA and quickly captured the NWA Western States
Tag Team title with Ricky Romero.  A dispute caused the two to split, and
Terry went on to capture the NWA Western States Title 6 times.  In the 1980s,
he went on to wrestling in Japan and made their hardcore wrestling style his
own.  His most memorable feud is with the immortal Cactus Jack, a.k.a. Mick
Foley.  He spent some time in the WWF, where he clashed with the Junkyard
Dog, and the two squared off in a tag-team match at Wrestlemania II.  When
ECW began, Terry Funk became one of the leaders of getting the promotion
going.  He was in the main event at the very first ECW PPV and is likely the
sole reason that the event was successful due to his tremendous popularity.
At the end of 1993, he defeated Sabu for the ECW Championship.  In 1997, he
returned to the WWF under the name of Chainsaw Charlie and was partners with
his old friend, Cactus Jack.  Together they defeated the New Age Outlaws at
Wrestlemania XIV in a dumpster match.  Terry is almost 60 years old today but
still travels the world, wrestling in various promotions and in Japan and
still lights up the crowd like almost no other wrestlers have ever done.
After almost 40 years of wrestling, Terry's main problem is a bad knee.

~"Superfly" Jimmy Snuka~
Jimmy Snuka began wrestling in the NWA and, teamed with "Mr. Wonderful" Paul
Orndorff, captured the NWA Tag Titles in 1978.  In the early 1980s, Snuka
made his way to the WWF, where he was managed by Captain Lou Albano.  Albano
got Snuka a title shot against the current Champion Bob Backlund in a steel
cage match.  Snuka got Backlund unconscious and climbed to the top of the
cage.  Instead of leaving, he performed his Superfly Leap at a height never
before tried by anyone. (Unfortunately, Backlund moved out of the way and
climbed out to win.) About a year later, Snuka found himself at Madison
Square Garden in the same position against Don Muraco.  This time, Snuka's
Superfly Leap hit right on Muraco, and the crowd went crazy. (A little known
fact is that, in the audience, a certain young man saw this move and was
inspired to train to become the living legend he is today.  That man was Mick
Foley.  This might also explain Foley's rather unorthodox style.) He left the
WWF for the AWA at the height of his popularity, in 1985.  Snuka's name was
now as well-known as Hogan's or Piper's. (Which reminds me... why isn't Piper
in this game?) In 1989, Snuka returned to the WWF and left his final mark in
history as the very first man to ever battle the Undertaker.  This match
happened at Wrestlemania VII in 1991.  Unfortunately, Snuka lost, like so
many more would.  The Superfly left the WWF in 1992 and shifted his attention
to ECW.  Today, he still wrestles in independent promotions.

~Jerry "the King" Lawler~
Lawler helped to create the USWA, the United States Wrestling Association, a
small federation out of Memphis, Tennessee, where he was the main star and
held the title numerous times.  He was never able to get that sort of respect
in the WWF, though, and is now one of the main ringside commentators for the
WWE.

~Legion of Doom/Road Warriors: Hawk and Animal~
The Road Warriors started their career by winning the NWA Tag Team titles in
1983.  They were named "Tag Team of the Year" by Pro Wrestling Illustrated
that year.  They wrestled on the championship level for the rest of the 1980s
in the NWA and the AWA, and were signed on to the WWF in 1990, where they
became known as the Legion of Doom.  At Summer Slam 1991, the Legion of Doom
defeated the Nasty Boyz for the tag team belts.  They became the most popular
tag team of their time and were hugely successful until Animal sustained an
injury in 1992, forcing the duo to break up.  Hawk continued to wrestle in
many different federations including ECW, All Japan, and WCW.  Animal
returned to Hawk in the WCW in February of 1996.  The WWF called them back,
and they were successful once again, winning the Tag Team titles in the fall
of 1997.  The duo left the WWF after Wrestlemania XIV and left wrestling
shortly after.  They were then named the top tag team of the century by the
Wrestling All-Stars Magazine.

I would also like to note here, in the form of an ego-booster, that I have
had the extreme honor of shaking hands with the legend known as Hawk during
his time in singles competition while Animal was recovering.  He was in a
little doughnut-shop known as Daddy-O's located down here in a quiet little
southwestern Mississippi town.  He also attended a local elementary school
fair where I saw him once again.  He is an outstanding gentleman.  He gave me
his autograph, but stupid, stupid, STUPID me, at some point while I was
growing up I misplaced it and I can't find it now.

~George "the Animal" Steele~
A lot of people have always wondered how Steele earned his reputation for
chewing on turnbuckles (a hearty afternoon snack).  Here's how.  At the end
of one of his matches while wrestling in a promotion in Pittsburg, one of the
fans through a pillow into the ring for him to do whatever with.  Steele is
quoted as saying "There's three things you can do with a pillow.  Sit on it,
throw it back, or tear it up."  Needles to say, Steele tore up the pillow
with his teeth and the crowd went crazy.  This began of his tradition of
"eating" turnbuckles after every match.  Right after Wrestlemania I Steele
took a liking to Macho Man Randy Savage's girlfriend, Miss Elizabeth, and a
year-long feud erupted with its climax occurring at Wrestlemania II when
Savage defended his Intercontinental belt against Steele.  Unfortunately,
Steele lost the match.  Steele never won many championships but he goes down
as a legend for making wrestling truly fun to watch.

~Ricky "the Dragon" Steamboat~
Steamboat's first big break occurred in the NWA in 1977 when he defeated the
NWA's rookie of the year Ric Flair to capture the Mid-Atlantic TV
Championship.  A feud erupted spanning many decades and into many wrestling
federations.  He remained in the NWA and won the Mid Atlantic Heavyweight
title and the NWA World Tag Team championship with Chief Jay Youngblood.
However, in 1983, Youngblood died and Steamboat went into retirement from
wrestling spend more time with his wife and child.  He returned to the WWF in
1995, however, and feuded with Don Muraco, Jake "the Snake" Roberts, and
Randy Savage.  In arguably the best Wrestlemania match ever, on March 23,
1987, at Wrestlemania III, Steamboat defeated Savage for the Intercontinental
title.  Unfortunately, he lost it three months later in a questionable match
to the Honky Tonk Man and disappeared from wrestling once again.  He would
frequently reappear and disappear from wrestling, usually after winning a
title.  The last title he won was the WCW World TV Title from "Mr. Wonderful"
Paul Orndorff, but unfortunately, a severe injury forced him to leave
wrestling for good in 1993.

~Iron Sheik~
Politics entered the sport of wrestling with the Iron Shiek.  He was
discovered at the 1972 Olympics by AWA promoter Verne Gagne.  In 1983, known
as the Great Hosein, he won his first title, the Canadian Tag Team
Championship, with partner the Texas Outlaw in 1978.  This victory caught the
eye of the WWWF where he debuted in 1979 and won the first ever Battle Royal
in Madison Square Garden, earning him a title shot at then-champion Bob
Backlund, who pinned him later that night after a 30 minute battle.  The Iron
Skeik returned to the WWF in 1983 and challenged Bob Backlund once again, who
was still champion, and defeated him on December 26, 1983, with his finisher
the Camel Clutch.  He lost the belt later to Hulk Hogan and went on to team
up with Nikolai Volkoff, and win the Tag Team Championship at Wrestlemania I.
He eventually left the WWF, then returned again in the early '90s but with
little success.  He went on to wrestle in various independent promotions
beyond the age of 60!  He is now retired.

~Ted DiBiase~
There is no doubt that Ted DiBiase, although never winning any major titles,
held one of the most illustrious careers to date in wrestling.  He was
trained by Dory Funk, Jr. and stepped into the squared circle for the first
time in his junior year.  Shortly after he was married in 1981, the WWF
noticed him and took him in.  He became a tremendous enemy of fan-favorite
champions from day one and became one of the most hated wrestlers by fans.
He also acquired a bodyguard, Virgil, who tired of DiBiase's abuse and broke
away shortly after Wrestlemania VI.  Before Wrestlemania IV, Andre the Giant
defeated Hulk Hogan in a very questionable decision for the WWF Championship,
then Andre turned and submitted the belt to DiBiase. (Thankfully, the WWF
refused to acknowledge DiBiase as the champion and declared the title
vacant.) DiBiase wrestled until 1999 when a back injury forced him to leave
wrestling for good.  DiBiase is arguably one of the best wrestlers around
with one major flaw - he was very "middle-of-the-road," that is, he was never
very good or very bad.  He had the potential to be great, to win so many
titles, but something was just missing in him.

~Nikolai Volkoff~
If there is one man you would have to rate as the most hated man to ever
enter the ring, it would have to be Nikolai Volkoff.  He began wrestling in
the USSR in 1968, then came to the US in 1970.  As soon as he arrived, he
began wrestling in the WWWF.  Managed by Captain Lou Albano and partnered
with Gito Mongol, he captured the WWWF Tag Team titles from Victor Rivera and
Tony Marino.  They lost the titles and Volkoff went on to singles
competition.  In 1974, he had what he considers to be the most memorable
match of his life when he sold out Madison Square Garden wrestling Bruno
Sammartino.  Volkoff was always given a considerable amount of title shots
from whoever was the current WWWF Champion.  He continued this for some time
before leaving, then entering a few years later once again in the new WWF,
where he teamed up with the Iron Sheik.  They captured the WWF Tag Team
Championship from Mike Rotundo and Barry Wyndham at Wrestlemania 1, the same
titles he held 15 years before.  He came and went and finally quit shortly
after 1995.

~Greg "the Hammer" Valentine~
Valentine's career began when he was 19 and lasted 30 years.  In 1978, with
partner Ric Flair, he captured the NWA World Tag Team Championship from the
Andersons.  He moved to the WWF in the early 80s and captured the
Intercontinental championship from Tito Santana in 1984 and the WWF Tag
titles with Brutus Beefcake in 1985, only to lose them at Wrestlemania II to
the British Bulldogs.  He left the WWF for a short time in the mid-80s to
wrestle in Japan, then returned to the states.  He still wrestles in Canada's
ICW today.

~King Kong Bundy~
King Kong Bundy holds the record for winning the shortest match in history.
If my memory serves me right, he won a match in just 9 seconds, incredible.
For most of his career, he was under the management services of Bobby "The
Brain" Heenan.  My knowledge of this powerhouse is limited, as he left the
WWF shortly after Wrestlemania II, but I do know that he held the WWF title
once.  He returned and battled the Undertaker at Wrestlemania XI for his urn,
but still lost, and was never seen there again.  He still wrestles today in
independent promotional matches.

~Harley Race~
Harley Race's career in the NWA is similar to that of Bruno Sammartino's in
the WWWF.  He was the man to beat for 20 years of his career.  His wrestling
career began at the age of 16.  He teamed up with Larry "the Ax" Hennig and
won the AWA Tag Team titles.  They became the AWA's most successful team of
the 1960s.  His greatest success opportunity occurred on May 23, 1973, when
he defeated Dory Funk, Jr. for the NWA World Heavyweight Championship.  He
lost and regained the title a total of 8 times through the period of the
1970s and into the 1980s.  He was also involved in the first NWA-WWWF cross-
promotional event where he battled the then-WWWF champion "Superstar" Billy
Graham to a one-hour draw.  He finally lost the title to Ric Flair in 1984,
then moved to the WWF.  He left shortly thereafter after not finding much
success there.  He returned to the new NWA, WCW, to manage the Kolossal Kongs
to the championship in the early 1990s.  Today he promotes his own wrestling
federation, the WLW, which operates out of the same central states he
wrestled in during his younger years.

~"Superstar" Billy Graham~
Billy Graham joined Stu Hart's wrestling promotion in 1969 and caused such a
stir in the AWA, NWA, and WWWF that he was in main event bouts within the
first two years of his career.  He was managed by Bobby "the Brain" Heenan in
the AWA and the Grand Wizard in the WWWF.  He returned to the WWWF in the
spring of 1977 and given a title match against Bruno Sammartino.  He won and
held the belt for 10 months before losing it to Bob Backlund.  They feuded
enormously before Graham left in 1980.  Rumors of his death surfaced, so he
returned to the WWF on the 4th anniversary of Backlund's winning the titled
and ripped his championship belt in half.  He remained in the WWF for a few
more years, then retired to do TV shows like The World's Strongest Man
competitions with Lou Ferrigno.

~Dork Funk Jr.~
Dory had a lot to live up to, being in the Funk family.  While still in
school, he wrestled in independent promotions.  On January 7, 1966, he
defeated "Big Thunder" Gene Kiniski for the NWA World Championship, a huge
upset for such a young wrestler to win the title.  Dory held the belt for 7
years before losing it to Harley Race in 1973.  He went on to wrestle in
other promotions such as the AWA, WWWF, and All Japan.  At Wrestlemania II,
he made an appearance in the WWF when he partnered with his brother Terry to
battle the team of the Junk Yard Dog (R.I.P.) and Tito Santana.  Today he
resides in Florida where he teaches Japanese, does financial counseling, and
trains young men wishing to be wrestling superstars.

~Captain Lou Albano~
No one manager has had more of an impact on wrestling than Albano.  He began
his career as a wrestler in the late 50s, teamed with partner Tony Altimore
to be known as the Sicilians.  They captured the Midwest Tag Team title on
June 30, 1961, and the US Tag Team Championship on July 10, 1967.  Around
1970, Albano went on to begin his managing career.  He had one thing on his
mind - get the WWWF title away from Bruno Sammartino.  He managed such
wrestlers as Freddie Blassie, Crusher Verdu, Prof. Toru Tanaka, and Ivan
Koloff to achieve this purpose.  He succeeded with Ivan Koloff in 1971.  At
the end of the 1970s, he shifted his attention to Bob Backlund in the same
way, but he was fast having a change of heart and becoming one of the most
loved managers in the business.  He was now a huge force in bringing the WWF
to so many people.  He also began appearing on MTV.  Toward the end of the
1980s, Albano pursued new programs but always made an appearance in the WWF.
In 1996 the WWF inducted him into the Hall of Fame.

~"Mouth of the South~ Jimmy Hart~
With his megaphone, Jimmy Hart always made it a point to let the fans know
how great his wrestling family was.  He started out in Memphis with Jerry
Lawler.  At the time, the WWF was a regional promotion that needed Southern
credibility to become the giant it eventually did become.  Vince McMahon
called on the Mouth of the South, and he accepted.  Hart managed many
wrestlers up to main event status, most notably the Honky Tonk Man, Hulk
Hogan, and Jesse "the Body" Ventura.  He also used his musical knowledge to
compose a host of entrance themes for WWF and WCW superstars.

~Mr. Fuji~
Fuji is probably best remembered as one of the most hated managers in the
WWF, but few people realize he has an immense wrestling background as well.
When he started his career in 1972, he was partnered with Toru Tanaka
(R.I.P.) and joined the WWWF.  They became the WWWF Tag Team Champions on
June 27, 1972 after defeating Chief Jay Strongbow and Sonny King, and held
the titles for 15 months.  Tanaka left, and Fugi found a new partner from
Japan, Mr. Saito.  They once again captured WWWF Tag Team gold in the early
1980s.  When Vince McMahon took over the WWF, Fugi became the manager we all
know.  He went on to manage a wide array of wrestlers, including Demolition,
the Orient Express, and, most notably, led Yokozuna (R.I.P.) to the WWF
Championship.  After Yokozuna lost the belt to Hulk Hogan at Wrestlemania IX,
Fuji left shortly thereafter to spend more time with his family and children.
Today he runs a wrestling school in Knoxville, TN, close to his family and
friends.

~Fritz von Erich (R.I.P.)~
Fritz began his wrestling career in the NWA promotions.  During his time
there he held the US Heavyweight title 3 times, the NWA Texas Heavyweight
title 3 times, the NWA American Heavyweight Championship 13 times and the NWA
World Heavyweight title 2 times.  When a dispute over Fritz arose among NWA
promoters, Fritz left and formed his own promotion, the World Class
Championship Wrestling (WCCW).  He searched for stars to wrestle and called
upon his 6 sons.  He nurtured them all to stardom.  Unfortunately, his oldest
son Jack (R.I.P.) died at an early age.  His other 5 sons became huge draws
in Texas and all was fine until David (R.I.P.) died in 1984 while touring in
Japan.  Three years later, in 1987, Michael (R.I.P.) passed away.  In 1991,
Chris (R.I.P.) died.  And the most famous of the von Erichs, Kerry (R.I.P.
Texas Tornado), died in 1993.  Kevin was, and still is, the only remaining
family member.  Through all of this, Fritz did what he could to continue on.
He died very lonely and depressed at his ranch on September 10, 1997.

~David von Erich (R.I.P.)~
David turned pro and began wrestling in the NWA's Texas Territory in 1978.
He won the Texas Territory Heavyweight Championship that year.  He also
teamed with his brother Kevin to win the NWA Texas Tag Team title in the same
year.  They captured the American Tag Team titles later that year.  He went
on to win the Texas title 5 more times, the NWA Southern Heavyweight
Championship, the North American Tag Team belts with partner Dory Funk Jr.,
the Florida TV title, the Missouri Heavyweight Championship, and the NWA
World Tag Team title with his brother Kevin.  3 of the von Erichs were
wrestling at this time: David, Kevin, and Fritz, and it seemed they were
headed for immorality.  However, tragedy struck on February 10, 1984, when
David, while touring in Japan, died of a drug overdose at the age of 25.

~Kerry von Erich (R.I.P.)~
Kerry was arguably the best wrestler of the von Erich dynasty and was
certainly the most successful.  He began as a tag partner to his brother
Kevin in their father's WCCW.  They won the tag titles 4 times.  He also won
the WCCW Heavyweight Championship 3 times between the late 1970s and the
early 1980s.  He went on to join the NWA and won the coveted NWA World Six-
Man Championship a total of 8 times, plus defeated Ric Flair for the NWA
World Championship during a tribute card commemorating his deceased brother.
Around this time the WCCW was beginning to fold and Kerry was battling
depression due to his brothers' deaths, plus addiction to painkillers and
other drugs.  He went on to join the WWF following the collapse of the WCCW
and there became known as the Texas Tornado.  He defeated Mr. Perfect at the
1990 Summerslam for the WWF Intercontinental Championship.  However, he only
held the title for a short 3 months.  While working for the WWF he was
arrested and sentenced to 10 years probation for forging a prescription.
After a second drug-related arrest that would have likely led to his spending
time in prison, he returned to his home in Denton, Texas and shot himself in
the chest.  Kerry von Erich died at the age of 33.

~Kevin von Erich~
Kevin was born in the late 1950s and was Fritz's second son.  The premature
death of his older brother Jack Jr. had a strong impact on him and sealed his
resolve to be the best.  He stepped into the ring as a high-flyer in 1976 and
won the American Heavyweight title, the NWA Tag Team title with his brother
David, the Missouri Heavyweight Championship and the NWA World Tag Team belt
also with his brother David within his first 5 years.  The mid 1980s were a
tough time for the von Erich family, but Kevin continued to wrestle for a
while before stepping away from the ring for good.  Today, he lives a quiet
life with his family and is the last surviving member of the original von
Erich dynasty.

~Michael von Erich (R.I.P.)~
Mike stepped into the ring in 1983 and was immediately expected to live up to
the same success his brothers had experienced.  The fans looked to him to
fill the shoes of his deceased brothers, but he was simply unable to do it.
In 1987, he was rushed to the hospital to be treated for a severe case of
Toxic Shock Syndrome, causing him to lose what little bulk he had built up on
his body.  In 1987, after a hard-fought recovery, a despondent Mike climbed
into a sleeping bag and took his own life with an overdose of prescription
drugs.  He was 23 years old.

~Rob Van Dam~
RVD's wrestling career began when a friend introduced him to the Sheik in
1988.  He trained for 2 years and proved his potential by defeating Dango
Nguyen.  He built his name in the early 1990s after replacing Chris Candido
in the USWA.  While wrestling in South Atlantic Professional Wrestling
(SAPW), he was noticed by WCW scouts and he quickly joined the promotion.
His time there was short-lived, as the WCW had a rule against climbing up the
top rope, something which RVD had perfected and based his fighting style
around.  He debuted in ECW on January 5, 1996, and immediately began feuding
with Sabu.  The result was the birth of a very successful tag team.  They
gained and lost tag team gold before RVD defeated Bam Bam Bigelow for the ECW
TV Title on April 4, 1998.  His reign lasted 23 months until he was forced to
leave wrestling for 3 months when he broke his leg in a match with Rhyno on
January 29, 2000.  RVD currently wrestles in the WWE and is enjoying the
prime of his career.

~Sabu~
The "Arabian Machine of Destruction" began with training under his uncle the
Sheik.  He debuted in 1990 with other very talented individuals, namely Chris
Candido, Chris Benoit, Al Snow, and the Tasmaniac.  Sabu laid down the
framework of what would be known as "extreme" wrestling.  He did not create
the Moonsault (go Terry Funk!), but he took it to heights never experienced
before.  One of his rituals was, every night after a match, whether he won or
lost, he would drag a table into the ring and perform a Moonsault onto the
table until it broke.  He also began using the table as a weapon against his
enemy, a common practice of WWE superstars today.  In 1993, he signed up with
the ECW out of Philadelphia.  His first victory was against the Tasmaniac.
After a betrayal in 1995, Sabu left to spend time in Japan, then was asked to
join WCW, but left soon after since it wasn't akin to his high-flying style.
At ECW's November to Remember PPV in 1995, Sabu returned.  He remained in ECW
until 2001 when he left the promotion for good.

~"Mr. USA" Tony Atlas~
Tony Atlas began his wrestling career in 1975 with the NWA in their Georgia
territory.  He captured the NWA Georgia Tag Team titles first with Mr.
Wrestling #2 and then Kevin Sullivan.  He captured them again in 1980 when he
teamed with Tommy Rich.  He became known as "Mr. USA" during this time when
he captured many power-lifting championships including Mr. Georgia, Mr. USA
and the New York Power Lifting Championship in 1981.  He would go on to
become one of the only men to even cleanly pin Hulk Hogan.  His career peaked
in 1983 when he partnered with the Rock's father Rocky Johnson to win the WWF
Tag Team titles from the Samoans.  He left the WWF soon after losing the
titles and wrestled in many hardcore matches in the Caribbean wrestling
leagues.  Tong returned briefly to the WWF in the 1990s but did not stay
long.  He spends his time today wrestling in many northeast independent
promotions.

~The Dynamite Kid~
The Dynamite Kid is part of one of the most successful tag teams in the WWF.
His partner was Davey Boy Smith (R.I.P.), and they were under the name of the
British Bulldogs.  They were a young team, and at Wrestlemania II, with the
help of his partner, the Dynamite Kid captured Tag Team gold from the then-
Dream Team of Greg Valentine and Brutus Beefcake.  There were countless
matches between themselves and foliages of Bobby Heenan.  The Dynamite Kid
left the WWF somewhere around the year 1990 after realizing that 15 years of
wrestling had done serious damage to his body, while Davey Boy Smith
continued to wrestle in singles competition.  He is now living in his native
England.

~One Man Gang~
The Gang started wrestling at the age of 16 and had his first big break as
Crusher Broomfield in the ICW.  He earned the name One Man Gang while
wrestling in a Mid-South promotion by Jim Ross.  The Gang made his way to the
WWF in the 1980s and found himself constantly involved in the main event bout
against such top WWF Superstars as Hulk Hogan and Randy Savage.  The WWF
eventually gave him the name of The African Dream Akeem and gave him a
partner, the Big Bossman, a manager, Slick, and a team name, the Twin Towers.
He eventually left the WWF for the WCW where he won the US Championship in
1995.  He never found himself until he started wrestling in ECW, though.  One
of his most memorable matches was against Abdullah the Butcher, where both
men were lucky to emerge alive.  Today, he continues to tour with independent
promotions.

~"Cowboy" Bob Orton~
Bob Orton wrestled for over 3 decades.  He started wrestling in amateur
promotions at the age of 9 (!!!) and began training for the professional
leagues along with Hiro Matsuda, Jack Brisco, and Eddie Graham.  He was on
the road constantly while he wrestled for 20 years in promotions in the
Southeast, chasing stardom.  He finally caught the eye of the WWF and he
became involved in the main event of the first-ever Wrestlemania, helping it
become an unbelievable success.  His entourages cost the team of Roddy Piper
and Paul Orndorff the match.  This made Bob Orton a huge player in the WWF
and there was no turning back.  The highlight of his career, according to
him, came at Wrestlemania III, where he wrestled in the opening match in
front of 93,000 screaming fans.  Not many wrestlers can proclaim the same.

~"Hot Stuff" Eddie Gilbert (R.I.P.)~
Gilbert's first match happened on April 20, 1979.  He went on to team up with
his famous dad, Tommy Gilbert, to win the WWC Tag Team Championship.  After
wrestling in Tennessee for a few years, he was brought to the WWF, where WWF
Champion Bob Backlund took Eddie under his wing.  He eventually left the WWF
for Mid-South wrestling and made the decision to join forces with Jimmy
Hart's "First Family."  The result was Eddie defeating his childhood hero
Jerry Lawler for the Mid-Southern International belt.  He then moved to the
UWF where he earned the nickname "Hot Stuff."  He began a feud with Sting
here in 1985 and they clashed for the rest of the 1980s.  He returned to the
USWA and rekindled his feud with Jerry Lawler in 1990.  Here Gilbert captured
his final championship, the USWA Tag titles, with Lawler's son Brian
Christopher in 1994.  They held the titles for one week.  One year later
Gilbert would wrestle his last match in Humacao, Puerto Rico on February 17,
1995.  He died soon after of a heart attack.

~The Rock & Roll Express: Robert Gibson and Ricky Morton~
In the mid-80s these two youngsters defeated Ivan Koloff and Krusher Kruschev
in various bouts to win the NWA World Tag Team titles.  Their arch nemesis,
however, was without a doubt the Midnight Express managed by Jim Cornette.
They feuded heavily and passionately with them throughout the years.  The
Rock & Roll Express will always be remembered for being 8-time NWA World Tag
Team champions.

~Rick Martel~
Martel started his career in 1972 when he subbed a match for his brother
Pierre Martel.  He began wrestling in that promotion and teamed with Don
Muraco to win the Hawaiian Tag Team Championship in 1978.  In 1980 he won the
Pacific Northwest title and the Canadian Tag Team belts with Roddy Piper.
The WWF soon came calling to Martel.  Teamed with Tony Garea, he won tag team
gold.  He later left to pursue singles titles in the AWA.  In 1983 Nick
Bockwinkle was the AWA Champion and Hulk Hogan was the rising star destined
to overtake him.  Suddenly, Hogan left for the WWF, and Bockwinkle lost the
title to Jumbo Tsuruta.  This is what Martel was waiting for, and on May 13,
1984, Martel defeated Tsuruta for the AWA Championship.  The WWF asked him to
return, so he did and teamed with Tom Zenk to capture the WWF Tag Team titles
from the Hart Foundation in October 1987.  He also gained title gold teaming
with Tito Santana as Strike Force, but lost the titles to Demolition at
Wrestlemania V, and Martel broke away from Santana soon after.  He left the
WWF in 1989 for independent promotions and ended up in the WCW toward the end
of the 1990s.  A knee injury in 2000 forced him to leave wrestling after
winning the WCW TV Title.

~Don Muraco~
Muraco was a huge powerhouse from day one in the NWA's Florida territory in
1979.  His first title came in 1980 when he defeated Manny Fernandez for the
NWA Florida Heavyweight Championship.  He began his stay in the WWF managed
by Captain Lou Albano.  Albano got him a shot at the Intercontinental belt on
June 20, 1981, against Pedro Morales, and Muraco won.  Five months later, he
lost it, then took some time away from the WWF.  He returned a year later
even larger in size than before and took back the IC Championship from
Morales.  He lost the belt to Tito Santana in February 1984, and then he
parted ways with Albano to come under Mr. Fuji.  He continued to dominate the
WWF and shortly before leaving came under management of Superstar Billy
Graham.  He later left to Calgary to compete in Stu Hart's Stampede
Wrestling, and won the North American Heavyweight Championship there.  When
he lost it to the British Bulldog (R.I.P.), he moved on to various
independent promotions before landing in ECW with two former rivals, Jimmy
Snuka and Tito Santana.  Muraco defeated Snuka for the ECW World Heavyweight
title and was in turn beaten by Tito Santana.  He stopped wrestling as much
after that.

~The Sheik~
The Sheik was the man to create hardcore wrestling more than 40 years ago.
He started his career in the 1950s managed by the man who would become the
Grand Wizard (R.I.P.).  Every one of his matches was a blood bath, which
attracted huge crowds.  He won 12 titles, including the Detroit Territory's
US Heavyweight Championship.  Few knew that he was also a businessman,
promoting the regional territory of Michigan and training future stars such
as his nephew Sabu, Rob Van Dam, and Scott Steiner.

~Ivan Koloff~
Koloff began wrestling at the age of 23 in 1965.  He ended up in the WWWF in
1970 and ended Bruno Sammartino's record breaking 8th title reign on January
18, 1971.  Fans were shocked, but rejoiced when Pedro Morales won the title 3
weeks later.  This good vs. evil clash brought many more fans to the sport
and the popularity of professional wrestling skyrocketed.  He spend the rest
of his wrestling years in tag teams, constantly winning cold.  His best
teammates were Nikita Koloff and Krusher Kruschev.  He continued wrestling
through the mid-1990s until he retired.  Today he trains new wrestlers.

~Tito Santana~
Santana began his career in the AWA.  He failed to capture the title from
Nick Bockwinkle so went on to the WWWF where he teamed with Ivan Putski to
capture tag team gold on October 22, 1979.  In late 1983 he got a title shot
against WWF Champion Iron Sheik.  He lost, but few people realize this match
occurred 2 days before Hulk Hogan defeated the Iron Sheik.  His greatest
success came when he defeated Don Muraco for the Intercontinental
Championship.  He continued to compete on the IC level against such stars as
Greg Valentine and Rick Martel.  It was with Rick Martel that Santana formed
one of the most successful tag teams, Strike Force.  He later left the WWF
for a short time and went to capture the ECW World Championship.  He now
wrestles in independent promotions.

~"The Birdman~ Koko B. Ware~
The Birdman drew huge crowds during the mid-1980s.  Koko and Frankie the
parrot were regulars on just about every WWF show.  He headline very many
Wrestlemania events and here developed his finisher, the Bird Buster.  Later,
he teamed up with Owen Hart (R.I.P.) to become a part of the team High
Energy.  They wrestled in the AWA and briefly in the WWF.  Koko was a huge
star in the WWF during the 1980s.  However, today Koko leads a rather sad
life.  He still wrestles, seeking that former glory he once had, without very
much success.  Good luck Koko.

~Ivan Putski~
One of the pain things Putski was known for was his huge physique.  He won
the World Class American Tag Team Championship with partner Jose Lothario
(trainer of Shawn Michaels for his Wrestlemania XII Iron Man match) in 1973.
He was given the chance to show his talent in the WWWF soon after.  Before
Tito Santana went solo, he teamed with Putski to capture the WWWF Tag Team
titles from Johnny and Jerry Valient on October 22, 1979.  They held the
titles for 6 months before losing them to the Samoans.  Putski continued in
singles competition, feuding with many WWF Superstars.  When his son Scott
Putski stepped into the ring, Ivan retired until one day in 1997 when he
teamed with his son to defeat the father-son team of Jerry "the King" Lawler
and Brian Christopher.

~Brian Pillman (R.I.P.)~
Pillman received his training from Stu Hart and began wrestling in that
promotion in 1987.  He was signed to the NWA 2 years later in 1989.  He
teamed with Tom Zenk and defeated the Fabulous Freebirds to win the US Tag
Titles there.  He moved on to the WCW and defeated Scotty Flamingo on October
27, 1991 to win the WCW World Light Heavyweight Championship.  When he lost
this title, he teamed up with "Stunning" Steve Austin to form the team of the
Hollywood Blondes.  They quickly captured WCW Tag team gold.  After a stop in
the ECW, Pillman began in the WWF.  Before the 1997 WWF PPV Badd Blood,
Pillman's body was found in his locker room.  He had died of heart disease at
the age of 35.

  0======================0
 / 4.) Hidden Wrestlers /|
0======================0 0
| 4.) Hidden Wrestlers |/
0======================0

There are a dozen hidden legends in this game.  To unlock them, consult the
following chart:

0--------------------0-----------------------------------------------------0
| Locked Legend      | Procedure For Unlocking                             |
0--------------------0-----------------------------------------------------0
| Captain Lou Albano | Take any "hated" legend through Career Mode         |
| Jimmy Hart         | Take any "loved" legend through Career Mode         |
| Dory Funk, Jr.     | Take Terry Funk through Career Mode                 |
| David Con Erich    | Take Kevin Von Erich through Career Mode            |
| Michael Von Erich  | Take Kevin Von Erich through Career Mode            |
| Fritz Von Erich    | Take Kerry Von Erich through Career Mode            |
| Sabu               | Take The Sheik through Career Mode                  |
| King Kong Bundy    | Win in the Southeast Territory in Career Mode       |
| Ivan Koloff        | Win any Non-Tag Tourney                             |
| Mr. Fuji           | Win the Tag Belts in Tournament Mode                |
| Robert Gibson      | Win a Tag Tournament of any format other than Belts |
| Ricky Morton       | Win a Tag Tournament of any format other than Belts |
0--------------------0-----------------------------------------------------0

Enjoy.

  0==============0
 / 5.) Movelist /|
0==============0 0
| 5.) Movelist |/
0==============0

In this section, you'll find how to do all of each wrestler's attacks, plus
controls and such.  All charts are setup as such:

0--------0
| Legend |
0--------0
Height
Weight
Hometown
Crowd Reaction
Finisher
Managers (If any)

0----------------0--------------------0-------------------0
| Type of Move   | Move Name          | Button Sequence   |
0----------------0--------------------0-------------------0

All "Locked" moves can be unlocked gradually as you take your wrestler
through career mode.

And so, we begin.  Hopefully it won't be too confusing, I think you'll rather
like the way it's setup.  I know I do.

0------------0
| Hulk Hogan |
0------------0
Height: 6'8"
Weight: 300 lbs.
Hometown: Venice Beach, California
Crowd Reaction: Loved
Finisher: Running Leg Drop
 - Opponent Ground Dizzy --> Running --> Tap Down on D-pad

0-------------------0
| Entrance          |
0-------------------0--------------------0-------------------0
|                   | Hulk Pose          | A                 |
|                   | Hulk Listen        | Y                 |
|                   | Hulk Flex          | X                 |
|                   | Hulk Pump Flex     | B                 |
0-------------------0--------------------0-------------------0

0-------------------0
| Ready Position    |
0-------------------0--------------------0-------------------0
| Weak Strike       | Right Jab          | A                 |
| Medium Strike     | Chop               | Left or Right + A |
| Strong Strike     | Big Punch to Head  | Up or Down + A    |
| Front Standing    | Gorilla Press Slam | Y                 |
|                   | Hip Toss           | Left or Right + Y |
|                   | Sidewalk Slam      | Up or Down + Y    |
| Behind            | Side Slam          | Y                 |
|                   | Atomic Drop        | Left or Right + Y |
0-------------------0--------------------0-------------------0

0-------------------0
| Tie-up            |
0-------------------0--------------------0-------------------0
| Vertical Suplex   | Hanging Vertical   | A                 |
|                   | Vertical Suplex    | Y                 |
|                   | Locked             |                   |
| Scoop Slam        | Scoop Slam         | A                 |
|                   | Shoulder Breaker   | Y                 |
|                   | Locked             |                   |
| Head Between Legs | Powerbomb          | A                 |
|                   | Sit-Out Piledriver | Y                 |
|                   | Locked             |                   |
| Belly-to-Belly    | Bear Hug           | A                 |
|                   | Push Suplex        | Y                 |
|                   | Locked             |                   |
0-------------------0--------------------0-------------------0

0-------------------0
| Grab From Behind  |
0-------------------0--------------------0-------------------0
| Gut Wrench        | High Angle Back    | A                 |
|                   | Electric Chair     | Y                 |
|                   | Locked             |                   |
| Samoan Drop       | Mummy Driver       | A                 |
|                   | Chest Breaker      | Y                 |
|                   | Locked             |                   |
| Full Nelson       | Russian Leg Sweep  | A                 |
|                   | Sleeper Submission | Y                 |
|                   | Locked             |                   |
0-------------------0--------------------0-------------------0

0-------------------0
| Bent Over         |
0-------------------0--------------------0-------------------0
| Front             | Butterfly Suplex   | Y                 |
|                   | Impact DDT         | Left or Right + Y |
| Behind            | Pumphandle Slam    | Y                 |
|                   | Rack               | Left or Right + Y |
0-------------------0--------------------0-------------------0

0--------------------0
| Opponent on Ground |
0-------------------00
| On Belly          |
0-------------------0--------------------0-------------------0
| Head              | Crossface Punches  | Y                 |
| Side              | Oklahoma Roll      | Y                 |
| Feet              | Romero Chinlock    | Y                 |
0-------------------0--------------------0-------------------0
| On Back           |
0-------------------0--------------------0-------------------0
| Choke             | Blatant Choke      | A                 |
|                   | Rear Chinlock      | Y                 |
|                   | Locked             |                   |
| Mount             | Head Shot Combo    | X                 |
|                   | Choke Punch        | Y                 |
| Hold Legs         | Kick to Groin      | A                 |
|                   | Figure Four        | Y                 |
|                   | Locked             |                   |
0-------------------0--------------------0-------------------0

0--------------------0
| Opponent in Corner |
0-------------------00----------------------0----------------0
| Facing In         | Climb TB and Pummel   | Y              |
|                   | Choke with Boot       | Left/Right + Y |
| Facing Out        | Rake Eyes             | Y              |
| Sit TB            | Belly-to-Belly Suplex | Y              |
| Sit Corner        | Corner Powerbomb      | Y              |
| Tree of Woe       | Shoulder Thrusts      | Y              |
0-------------------0-----------------------0----------------0

0-------------------0
| Apron             |
0-------------------0--------------------0-------------------0
| Tie-up in Ring    | Bring In Hard Way  | Y                 |
| Tie-up on Apron   | Bring Out Hard Way | Y                 |
0-------------------0--------------------0-------------------0

0-------------------0
| Opponent Running  |
0-------------------0--------------------0-------------------0
| Standing          | Big Boot           | A                 |
|                   | Powerslam          | Y                 |
|                   | Locked             |                   |
0-------------------0--------------------0-------------------0

0-------------------0
| Running           |
0-------------------00---------------------0-----------------0
| Opponent Standing  | Clothesline         | A, Y, or X      |
| Opponent on Ground | Fist Drop           | A, Y, or X      |
| Opponent in Corner | Running Clothesline | A, Y, or X      |
| Tree of Woe        | Shoulderblock       | A, Y, or X      |
0--------------------0---------------------0-----------------0

0-------------------0--------------------0-------------------0
| Weapon Attack     | Double Chair Shot  | Y                 |
0-------------------0--------------------0-------------------0

0------------------------0
| Jimmy "Superfly" Snuka |
0------------------------0
Height: 6'0"
Weight: 260 lbs.
Hometown: The Fiji Islands
Crowd Reaction: Loved
Finisher: Superfly Leap
 - Opponent Ground Dizzy --> stand by turnbuckle and tap Down on D-pad

0-------------------0
| Entrance          |
0-------------------0---------------------0------------------0
|                   | Snuka Hand Pose     | A                |
|                   | Snuka Knee Pose     | Y                |
|                   | Snuka Right Hand Up | X                |
|                   | Slap Hands Right    | B                |
0-------------------0---------------------0------------------0

0-------------------0
| Ready Position    |
0-------------------0--------------------0-------------------0
| Weak Strike       | Front Kick to Gut  | A                 |
| Medium Strike     | Lean-In Uppercut   | Left or Right + A |
| Strong Strike     | Drop Kick          | Up or Down + A    |
| Front Standing    | Headbutt           | Y                 |
|                   | Enziguri           | Left or Right + Y |
|                   | Locked             |                   |
| Behind            | Backslide          | Y                 |
|                   | Cobra Slam         | Left or Right + Y |
0-------------------0--------------------0-------------------0

0-------------------0
| Tie-up            |
0-------------------0------------------------0---------------0
| Vertical Suplex   | Vertical Chest Breaker | A             |
|                   | Corkscrew Suplex       | Y             |
| Scoop Slam        | Scoop Slam             | A             |
|                   | Fall Forward Scoop     | Y             |
| Head Between Legs | Fall Back Piledriver   | A             |
| Belly-to-Belly    | Northern Lights        | A             |
0-------------------0------------------------0---------------0

0-------------------0
| Grab From Behind  |
0-------------------0--------------------0-------------------0
| Gut Wrench        | Tiger Suplex       | A                 |
|                   | Victory Roll Pin   | Y                 |
| Samoan Drop       | Samoan Drop        | A                 |
|                   | Chest Breaker      | Y                 |
| Full Nelson       | Crossface Wing     | A                 |
|                   | Dragon Sleeper     | Y                 |
0-------------------0--------------------0-------------------0

0-------------------0
| Bent Over         |
0-------------------0--------------------0-------------------0
| Front             | DDT                | Y                 |
|                   | Gutwrench Suplex   | Left or Right + Y |
| Behind            | Stretch Plum       | Y                 |
0-------------------0--------------------0-------------------0

0--------------------0
| Opponent on Ground |
0-------------------00
| On Belly          |
0-------------------0--------------------0-------------------0
| Head              | Drop Kick to Face  | Y                 |
| Side              | La Magistral Pin   | Y                 |
| Feet              | Surfboard          | Y                 |
0-------------------0--------------------0-------------------0
| On Back           |
0-------------------0--------------------0-------------------0
| Choke             | Drop Kick to Head  | A                 |
|                   | Scissored Arm Bar  | Y                 |
| Mount             | Fuji Arm Bar       | X                 |
|                   | Locked             |                   |
| Hold Legs         | Ankle Stretch      | A                 |
|                   | Single Leg Crab    | Y                 |
|                   | Locked             |                   |
0-------------------0--------------------0-------------------0

0--------------------0
| Opponent in Corner |
0-------------------00-------------------0-------------------0
| Facing In         | Big Double Chop    | Y                 |
|                   | Locked             |                   |
| Facing Out        | Neckbreaker        | Y                 |
| Sit TB            | Superplex          | Y                 |
| Sit Corner        | Stand on Chest     | Y                 |
| Tree of Woe       | Shoulder Thrusts   | Y                 |
0-------------------0--------------------0-------------------0

0----------------------0
| Turnbuckle           |
0----------------------0-----------------0-------------------0
| Opp Dizzy Standing   | Cross-Body      | Any direction + A |
| Opp Ready Position   | Shoulder Block  | Any direction + A |
|                      | Locked          |                   |
| Opp Dizzy Ground     | Senton Bomb     | Any direction + A |
| Opp Dizzy Out Stand  | Locked          |                   |
| Opp Dizzy Out Ground | Locked          |                   |
0----------------------0-----------------0-------------------0

0-------------------0
| Apron             |
0-------------------0--------------------0-------------------0
| Tie-up in Ring    | Sunset Flip        | Y                 |
| Tie-up on Apron   | Sunset Flip        | Y                 |
| SB Standing       | SB Lariat          | Y                 |
| SB Ground         | SB Splash          | Y                 |
| SB Floor Stand    | Locked             |                   |
| SB Floor Ground   | Locked             |                   |
| Standing Plancha  | Top Rope Senton    | A                 |
0-------------------0--------------------0-------------------0

0-------------------0
| Opponent Running  |
0-------------------0--------------------0-------------------0
| Standing          | Drop Kick          | A                 |
|                   | Locked             |                   |
0-------------------0--------------------0-------------------0

0---------------------0
| Running             |
0---------------------0---------------------0----------------0
| Opponent Standing   | Flying Forearm      | A, Y, or X     |
| Opponent on Ground  | Rolling Senton      | A, Y, or X     |
| Opponent in Corner  | Monkey Flip         | A, Y, or X     |
| Opponent Corner Sit | Running Drop Kick   | A, Y, or X     |
| Opponent Outside    | Senton Plancha      | A              |
| Tree of Woe         | Running Drop Kick   | A, Y, or X     |
0---------------------0---------------------0----------------0

0-------------------0--------------------0-------------------0
| Weapon Attack     | Triple Can Hit     | Y                 |
0-------------------0--------------------0-------------------0

0-------------------0
| Road Warrior Hawk |
0-------------------0
Height: 6'3"
Weight: 275 lbs.
Hometown: Chicago, Illinois
Crowd Reaction: Loved
Finisher: Jumping Lariat
 - Opponent Standing Dizzy - go to turnbuckle and tap Down on D-pad
Manager 1: Animal

0-------------------0
| Entrance          |
0-------------------0--------------------0-------------------0
|                   | Animal Fists       | A                 |
|                   | What a Rush        | Y                 |
|                   | Walk One Fist Up   | X                 |
|                   | Slap Hands Left    | B                 |
0-------------------0--------------------0-------------------0

0-------------------0
| Ready Position    |
0-------------------0--------------------0-------------------0
| Weak Strike       | Chop               | A                 |
| Medium Strike     | Open Palm Strike   | Left or Right + A |
| Strong Strike     | Big Left Punch     | Up or Down + A    |
| Front Standing    | Gorilla Press Slam | Y                 |
|                   | Chin Crusher       | Left or Right + Y |
|                   | Locked             |                   |
| Behind            | DDT Slam           | Y                 |
|                   | Reverse DDT        | Left or Right + Y |
0-------------------0--------------------0-------------------0

0-------------------0
| Tie-up            |
0-------------------0-------------------------0--------------0
| Vertical Suplex   | Corkscrew Suplex        | A            |
|                   | Snap Suplex             | Y            |
|                   | Rolling Suplex          | X            |
| Scoop Slam        | Fall Forward Slam       | A            |
|                   | Side Neck Breaker       | Y            |
| Head Between Legs | Fall Forward Powerbomb  | A            |
|                   | Cradle Piledriver       | Y            |
|                   | Locked                  |              |
| Belly-to-Belly    | Overhead Belly-to-Belly | A            |
|                   | Northern Lights         | Y            |
|                   | Locked                  |              |
0-------------------0-------------------------0--------------0

0-------------------0
| Grab From Behind  |
0-------------------0----------------------0-----------------0
| Gut Wrench        | Belly-Back Powerbomb | A               |
|                   | 360 Belly-Back       | Y               |
| Samoan Drop       | Death Valley Driver  | A               |
|                   | Twirling Samoan      | Y               |
| Full Nelson       | Full Nelson Sit Out  | A               |
|                   | Front Russian Sweep  | Y               |
0-------------------0----------------------0-----------------0

0-------------------0
| Bent Over         |
0-------------------0-------------------------0--------------0
| Front             | Impact DDT              | Y            |
|                   | Butterfly Suplex        | Left/Right+Y |
| Behind            | Reverse Fireman's Carry | Y            |
|                   | Locked                  |              |
0-------------------0-------------------------0--------------0

0--------------------0
| Opponent on Ground |
0-------------------00
| On Belly          |
0-------------------0--------------------0-------------------0
| Head              | Seated Chinlock    | Y                 |
| Side              | Rings              | Y                 |
| Feet              | Romero Chinlock    | Y                 |
0-------------------0--------------------0-------------------0
| On Back           |
0-------------------0--------------------0-------------------0
| Choke             | Surfboard Stretch  | A                 |
| Mount             | Head Shot Combo    | X                 |
| Hold Legs         | Figure Four        | A                 |
0-------------------0--------------------0-------------------0

0--------------------0
| Opponent in Corner |
0-------------------00-------------------------0-------------0
| Facing In         | Diamond Dust             | Y           |
|                   | Locked                   |             |
| Facing Out        | Neckbreaker              | Y           |
| Sit TB            | Belly-to-Belly Superplex | Y           |
| Sit Corner        | Corner Powerbomb         | Y           |
| Tree of Woe       | Stand on Nuts            | Y           |
0-------------------0--------------------------0-------------0

0----------------------0
| Turnbuckle           |
0----------------------0-------------------0-----------------0
| Opp Dizzy Standing   | Shoulder Block    | Any direction+A |
| Opp Ready Position   | Double Axe Handle | Any direction+A |
| Opp Dizzy Ground     | Kamikaze Headbutt | Any direction+A |
| Opp Dizzy Out Stand  | Double Axe Handle | Any direction+A |
0----------------------0-------------------0-----------------0

0-------------------0
| Apron             |
0-------------------0--------------------0-------------------0
| Tie-up in Ring    | Bring In Hard Way  | Y                 |
| Tie-up on Apron   | Bring Out Hard Way | Y                 |
| SB Standing       | Locked             |                   |
| SB Ground         | Locked             |                   |
| SB Floor Stand    | Locked             |                   |
| SB Floor Ground   | Locked             |                   |
| Standing Plancha  | Standing Plancha   | A                 |
0-------------------0--------------------0-------------------0

0-------------------0
| Opponent Running  |
0-------------------0--------------------0-------------------0
| Standing          | Big Boot           | A                 |
|                   | Locked             |                   |
0-------------------0--------------------0-------------------0

0---------------------0
| Running             |
0---------------------0------------------0-------------------0
| Opponent Standing   | Shoulder Block   | A, Y, or X        |
| Opponent on Ground  | Fist Drop        | A, Y, or X        |
| Opponent in Corner  | Angled Splash    | A, Y, or X        |
| Opponent Corner Sit | Shoulder Block   | A, Y, or X        |
| Opponent Outside    | Clear Plancha    | A                 |
| Tree of Woe         | Shoulder Block   | A, Y, or X        |
0---------------------0------------------0-------------------0

0-------------------0--------------------0-------------------0
| Weapon Attack     | Double Chair       | Y                 |
0-------------------0--------------------0-------------------0

0---------------------0
| Road Warrior Animal |
0---------------------0
Height: 6'1"
Weight: 295 lbs.
Hometown: Chicago, Illinois
Crowd Reaction: Loved
Finisher: Powerslam
 - Opponent Running - tap Down on D-Pad
Manager 1: Hawk

0-------------------0
| Entrance          |
0-------------------0--------------------0-------------------0
|                   | Arm Flex Wave      | A                 |
|                   | Animal Fists       | Y                 |
|                   | Slap Hands Right   | X                 |
|                   | Slap Hands Left    | B                 |
0-------------------0--------------------0-------------------0

0-------------------0
| Ready Position    |
0-------------------0--------------------0-------------------0
| Weak Strike       | Gut Shot           | A                 |
| Medium Strike     | Right Jab          | Left or Right + A |
| Strong Strike     | Big Punch to Head  | Up or Down + A    |
| Front Standing    | Gorilla Press Slam | Y                 |
|                   | Hip Toss           | Left or Right + Y |
|                   | Headbutt           | Up or Down + Y    |
| Behind            | Side Slam          | Y                 |
|                   | Locked             |                   |
0-------------------0--------------------0-------------------0

0-------------------0
| Tie-up            |
0-------------------0-------------------------0--------------0
| Vertical Suplex   | Hanging Powerslam       | A            |
|                   | Hanging Brainbuster     | Y            |
|                   | Front Suplex            | X            |
|                   | Locked                  |              |
| Scoop Slam        | Shoulder Breaker        | A            |
|                   | Scoop Slam              | Y            |
|                   | Fall Forward Slam       | X            |
|                   | Locked                  |              |
| Head Between Legs | Shoulder Powerbomb      | A            |
|                   | Fall Forward Powerbomb  | Y            |
|                   | Sit Out Powerbomb       | X            |
|                   | Locked                  |              |
| Belly-to-Belly    | Spinning Belly-to-Belly | A            |
|                   | Bear Hug Slam           | Y            |
|                   | Bear Hug                | X            |
|                   | Locked                  |              |
0-------------------0-------------------------0--------------0

0-------------------0
| Grab From Behind  |
0-------------------0----------------------0-----------------0
| Gut Wrench        | Reverse Powerbomb    | A               |
|                   | High Angle Back      | Y               |
|                   | Release German       | X               |
| Samoan Drop       | Death Valley Driver  | A               |
|                   | Chest Breaker        | Y               |
|                   | Locked               |                 |
| Full Nelson       | Full Nelson Sit Out  | A               |
|                   | Sleeper Submission   | Y               |
|                   | Katahajime Plex      | X               |
0-------------------0----------------------0-----------------0

0-------------------0
| Bent Over         |
0-------------------0----------------------0-----------------0
| Front             | Gutwrench Powerbomb  | Y               |
|                   | Gutwrench Suplex     | Left/Right + Y  |
| Behind            | Pumphandle Slam      | Y               |
0-------------------0----------------------0-----------------0

0--------------------0
| Opponent on Ground |
0-------------------00
| On Belly          |
0-------------------0--------------------0-------------------0
| Head              | Crossface Punches  | Y                 |
| Side              | Oklahoma Roll      | Y                 |
| Feet              | Romero Chinlock    | Y                 |
0-------------------0--------------------0-------------------0
| On Back           |
0-------------------0--------------------0-------------------0
| Choke             | Rear Chinlock      | A                 |
| Mount             | Two Elbows         | X                 |
| Hold Legs         | Fist to Groin      | A                 |
|                   | Locked             |                   |
0-------------------0--------------------0-------------------0

0--------------------0
| Opponent in Corner |
0-------------------00-------------------------0-------------0
| Facing In         | Running Powerslam        | Y           |
|                   | Locked                   |             |
| Facing Out        | Turn Post Slam           | Y           |
| Sit TB            | Press Slam               | Y           |
| Sit Corner        | Corner Powerbomb         | Y           |
| Tree of Woe       | Shoulder Thrusts         | Y           |
0-------------------0--------------------------0-------------0

0----------------------0
| Turnbuckle           |
0----------------------0-------------------0-----------------0
| Opp Ready Position   | Double Axe Handle | Any direction+A |
| Opp Dizzy Ground     | Locked            |                 |
0----------------------0-------------------0-----------------0

0-------------------0
| Apron             |
0-------------------0--------------------0-------------------0
| Tie-up in Ring    | Piledriver         | Y                 |
| Tie-up on Apron   | Piledriver         | Y                 |
0-------------------0--------------------0-------------------0

0-------------------0
| Opponent Running  |
0-------------------0--------------------0-------------------0
| Standing          | Spine Buster       | A                 |
|                   | Locked             |                   |
0-------------------0--------------------0-------------------0

0---------------------0
| Running             |
0---------------------0---------------------0----------------0
| Opponent Standing   | Clothesline         | A, Y, or X     |
| Opponent on Ground  | Knee Drop           | A, Y, or X     |
| Opponent in Corner  | Running Clothesline | A, Y, or X     |
| Opponent Corner Sit | Shoulder Block      | A, Y, or X     |
| Tree of Woe         | Shoulder Block      | A, Y, or X     |
0---------------------0---------------------0----------------0

0-------------------0--------------------0-------------------0
| Weapon Attack     | Double Chair Shot  | Y                 |
0-------------------0--------------------0-------------------0

0--------------------0
| Bret "Hitman" Hart |
0--------------------0
Height: 5'11"
Weight: 235 lbs.
Hometown: Calgary, Alberta, Canada
Crowd Reaction: Loved
Finisher: Sharpshooter
 - Opponent Ground on Back Dizzy --> Hold Legs --> Tap Down on D-Pad

0-------------------0
| Entrance          |
0-------------------0--------------------0-------------------0
|                   | Hand On Hips       | A                 |
|                   | Arms Out           | Y                 |
|                   | Slap Hands Right   | X                 |
|                   | Slap Hands Left    | B                 |
0-------------------0--------------------0-------------------0

0-------------------0
| Ready Position    |
0-------------------0--------------------0-------------------0
| Weak Strike       | Front Kick to Gut  | A                 |
| Medium Strike     | Chop               | Left or Right + A |
| Strong Strike     | Drop Kick          | Up or Down + A    |
| Front Standing    | Enziguri           | Y                 |
|                   | Headbutt           | Left or Right + Y |
|                   | Small Package      | Up or Down + Y    |
| Behind            | Low Blow           | Y                 |
|                   | School Boy Pin     | Left or Right + Y |
0-------------------0--------------------0-------------------0

0-------------------0
| Tie-up            |
0-------------------0-------------------------0--------------0
| Vertical Suplex   | Snap Suplex             | A            |
|                   | Fisherman Suplex        | Y            |
| Scoop Slam        | Shoulder Breaker        | A            |
|                   | Fall Forward Slam       | Y            |
| Head Between Legs | Fall Back Piledriver    | A            |
|                   | Sit Out Powerbomb       | Y            |
| Belly-to-Belly    | Northern Lights         | A            |
0-------------------0-------------------------0--------------0

0-------------------0
| Grab From Behind  |
0-------------------0----------------------0-----------------0
| Gut Wrench        | German Suplex        | A               |
|                   | Tiger Suplex         | Y               |
| Samoan Drop       | Samoan Drop          | A               |
|                   | Locked               |                 |
| Full Nelson       | Sleeper Submission   | A               |
|                   | Russian Leg Sweep    | Y               |
0-------------------0----------------------0-----------------0

0-------------------0
| Bent Over         |
0-------------------0-------------------------0--------------0
| Front             | Spinning Neckbreaker    | Y            |
|                   | Double-Arm DDT          | Left/Right+Y |
| Behind            | Back Breaker            | Y            |
0-------------------0-------------------------0--------------0

0--------------------0
| Opponent on Ground |
0-------------------00
| On Belly          |
0-------------------0--------------------0-------------------0
| Head              | Drop Kick to Face  | Y                 |
| Side              | La Magistral Pin   | Y                 |
| Feet              | Inverted STF       | Y                 |
0-------------------0--------------------0-------------------0
| On Back           |
0-------------------0--------------------0-------------------0
| Choke             | Spinal Tap         | A                 |
|                   | Dragon Lock        | Y                 |
|                   | Locked             |                   |
| Mount             | Fuji Arm Bar       | X                 |
|                   | Locked             |                   |
| Hold Legs         | Headbutt to Groin  | A                 |
|                   | Kick to Groin      | Y                 |
|                   | Figure Four        | X                 |
0-------------------0--------------------0-------------------0

0--------------------0
| Opponent in Corner |
0-------------------00-------------------------0-------------0
| Facing In         | Tornado DDT              | Y           |
|                   | Locked                   |             |
| Facing Out        | Choke                    | Y           |
| Sit TB            | Superplex                | Y           |
| Sit Corner        | Slingshot                | Y           |
| Tree of Woe       | Standing Drop Kick       | Y           |
0-------------------0--------------------------0-------------0

0----------------------0
| Turnbuckle           |
0----------------------0-----------------0-------------------0
| Opp Dizzy Standing   | Crossbody       | Any direction + A |
| Opp Ready Position   | Drop Kick       | Any direction + A |
|                      | Locked          |                   |
| Opp Dizzy Ground     | 2nd Rope Elbow  | Any direction + A |
|                      | Locked          |                   |
| Opp Dizzy Out Stand  | Crossbody       | Any direction + A |
| Opp Dizzy Out Ground | Splash          | Any direction + A |
0----------------------0-----------------0-------------------0

0-------------------0
| Apron             |
0-------------------0--------------------0-------------------0
| Tie-up in Ring    | Bring In Hard Way  | Y                 |
| Tie-up on Apron   | Sunset Flip        | Y                 |
| SB Floor Ground   | Locked             |                   |
| Standing Plancha  | Locked             |                   |
0-------------------0--------------------0-------------------0

0-------------------0
| Opponent Running  |
0-------------------0--------------------0-------------------0
| Standing          | Back Body Drop     | A                 |
|                   | Locked             |                   |
0-------------------0--------------------0-------------------0

0---------------------0
| Running             |
0---------------------0---------------------0----------------0
| Opponent Standing   | Flying Forearm      | A, Y, or X     |
| Opponent on Ground  | Knee Drop           | A, Y, or X     |
| Opponent in Corner  | Running Clothesline | A, Y, or X     |
| Opponent Corner Sit | Running Drop Kick   | A, Y, or X     |
| Opponent Outside    | Locked              |                |
| Tree of Woe         | Running Drop Kick   | A, Y, or X     |
0---------------------0---------------------0----------------0

0-------------------0--------------------0-------------------0
| Weapon Attack     | Russian Leg Sweep  | Y                 |
0-------------------0--------------------0-------------------0

0----------------0
| The Iron Sheik |
0----------------0
Height: 6'0"
Weight: 275 lbs.
Hometown: Tehran, Iran
Crowd Reaction: Hated
Finisher: Camel Clutch
 - Opponent Ground on Belly Dizzy --> Head --> Tap Down on D-Pad
Manager 1: Volkoff

0-------------------0
| Entrance          |
0-------------------0---------------------0------------------0
|                   | Stop and Taunt Fans | A                |
|                   | Flex One Up         | Y                |
|                   | Point at Ring       | X                |
|                   | Look at Fans        | B                |
0-------------------0---------------------0------------------0

0-------------------0
| Ready Position    |
0-------------------0--------------------0-------------------0
| Weak Strike       | Gut Shot           | A                 |
| Medium Strike     | Chop               | Left or Right + A |
| Strong Strike     | Tornado Punch      | Up or Down + A    |
| Front Standing    | Hip Toss           | Y                 |
|                   | Hair Grab Takeover | Left or Right + Y |
|                   | Locked             |                   |
| Behind            | Atomic Drop        | Y                 |
|                   | Low Blow           | Left or Right + Y |
0-------------------0--------------------0-------------------0

0-------------------0
| Tie-up            |
0-------------------0-------------------------0--------------0
| Vertical Suplex   | FrontSuplex             | A            |
|                   | Vertical Chest Breaker  | Y            |
|                   | Seated Front Suplex     | X            |
|                   | Locked                  |              |
| Scoop Slam        | Power Driver            | A            |
|                   | Shoulder Breaker        | Y            |
|                   | Fall Forward Slam       | X            |
|                   | Locked                  |              |
| Head Between Legs | Powerbomb               | A            |
|                   | Sit Out Powerbomb       | Y            |
|                   | Fall Back Piledriver    | X            |
|                   | Locked                  |              |
| Belly-to-Belly    | Belly-to-Belly Suplex   | A            |
|                   | Spinning Belly-to-Belly | Y            |
|                   | Locked                  |              |
0-------------------0-------------------------0--------------0

0-------------------0
| Grab From Behind  |
0-------------------0----------------------0-----------------0
| Gut Wrench        | Belly-Back Powerbomb | A               |
|                   | Belly-Back Suplex    | Y               |
|                   | Locked               |                 |
| Samoan Drop       | Mummy Driver         | A               |
|                   | Fireman Toss         |                 |
| Full Nelson       | Full Nelson Slam     | A               |
|                   | Russian Leg Sweep    | Y               |
0-------------------0----------------------0-----------------0

0-------------------0
| Bent Over         |
0-------------------0-----------------------0----------------0
| Front             | Double-Arm DDT        | Y              |
|                   | Guillotine Scissor    | Left/Right + Y |
|                   | Locked                |                |
| Behind            | Cobra Twist           | Y              |
|                   | Pumphandle Power Slam | Left/Right + Y |
0-------------------0-----------------------0----------------0

0--------------------0
| Opponent on Ground |
0-------------------00
| On Belly          |
0-------------------0--------------------0-------------------0
| Head              | Crossface Punches  | Y                 |
| Side              | Oklahoma Roll      | Y                 |
| Feet              | Dragon Cross       | Y                 |
0-------------------0--------------------0-------------------0
| On Back           |
0-------------------0---------------------0------------------0
| Choke             | Blatant Choke       | A                |
|                   | Spinal Tap          | Y                |
| Mount             | Head Shot Combo     | X                |
|                   | Reverse Figure Four |                  |
| Hold Legs         | Fist to Groin       | A                |
|                   | Kick to Groin       | Y                |
|                   | Locked              |                  |
0-------------------0---------------------0------------------0

0--------------------0
| Opponent in Corner |
0-------------------00-------------------------0-------------0
| Facing In         | Lean-In Choke            | Y           |
|                   | Locked                   |             |
| Facing Out        | Rake Eyes                | Y           |
| Sit TB            | Belly-to-Belly Superplex | Y           |
| Sit Corner        | Stand on Chest           | Y           |
| Tree of Woe       | Elbow to Nuts            | Y           |
0-------------------0--------------------------0-------------0

0-------------------0
| Apron             |
0-------------------0--------------------0-------------------0
| Tie-up in Ring    | Bring In Hard Way  | Y                 |
| Tie-up on Apron   | Bring Out Hard Way | Y                 |
0-------------------0--------------------0-------------------0

0-------------------0
| Opponent Running  |
0-------------------0--------------------0-------------------0
| Standing          | Flapjack           | A                 |
|                   | Locked             |                   |
0-------------------0--------------------0-------------------0

0---------------------0
| Running             |
0---------------------0---------------------0----------------0
| Opponent Standing   | Shoulder Tabkle     | A, Y, or X     |
| Opponent on Ground  | Knee Drop           | A, Y, or X     |
| Opponent in Corner  | Running Clothesline | A, Y, or X     |
| Opponent Corner Sit | Shoulder Block      | A, Y, or X     |
| Tree of Woe         | Shoulder Block      | A, Y, or X     |
0---------------------0---------------------0----------------0

0-------------------0--------------------0-------------------0
| Weapon Attack     | Triple Can Hit     | Y                 |
0-------------------0--------------------0-------------------0

0----------0
| Mr. Fuji |
0----------0
Height: 6'0"
Weight: 290 lbs.
Hometown: Osaka, Japan
Crowd Reaction: Hated
Finisher: Banzai Drop
 - Opponent Ground Dizzy --> go to turnbuckle and tap Down on D-Pad

0-------------------0
| Entrance          |
0-------------------0---------------------0------------------0
|                   | Point at Ring       | A                |
|                   | Arm Flex Wave       | Y                |
|                   | Threaten Crowd      | X                |
|                   | Stop and Taunt Fans | B                |
0-------------------0---------------------0------------------0

0-------------------0
| Ready Position    |
0-------------------0--------------------0-------------------0
| Weak Strike       | Chop               | A                 |
| Medium Strike     | Open Palm Strike   | Left or Right + A |
| Strong Strike     | Roundhouse Kick    | Up or Down + A    |
| Front Standing    | Hip Toss           | Y                 |
|                   | Small Package      | Left or Right + Y |
|                   | Hair Grab Takeover | Up or Down + Y    |
| Behind            | School Boy Pin     | Y                 |
|                   | Low Blow           | Left or Right + Y |
0-------------------0--------------------0-------------------0

0-------------------0
| Tie-up            |
0-------------------0-------------------------0--------------0
| Vertical Suplex   | Hanging Brain Buster    | A            |
|                   | Rolling Suplex          | Y            |
| Scoop Slam        | Seated Driver           | A            |
|                   | Fire Thunder Diver      | Y            |
| Head Between Legs | Cradle Piledriver       | A            |
|                   | Underhook Piledriver    | Y            |
| Belly-to-Belly    | Inverted Piledriver     | A            |
|                   | Locked                  |              |
0-------------------0-------------------------0--------------0

0-------------------0
| Grab From Behind  |
0-------------------0----------------------0-----------------0
| Gut Wrench        | Electric Chair       | A               |
|                   | Rolling German       | Y               |
| Samoan Drop       | Elevated Ace Crusher | A               |
|                   | Locked               |                 |
| Full Nelson       | Head-Arm Choke       | A               |
|                   | Katahajime           | Y               |
0-------------------0----------------------0-----------------0

0-------------------0
| Bent Over         |
0-------------------0-------------------------0--------------0
| Front             | Kamikaze                | Y            |
|                   | Guillotine Scissor      | Left/Right+Y |
| Behind            | Octopus Hold            | Y            |
|                   | Locked                  |              |
0-------------------0-------------------------0--------------0

0--------------------0
| Opponent on Ground |
0-------------------00
| On Belly          |
0-------------------0--------------------0-------------------0
| Head              | Seated Chinlock    | Y                 |
| Side              | Crossface          | Y                 |
| Feet              | Ankle Lock         | Y                 |
0-------------------0--------------------0-------------------0
| On Back           |
0-------------------0--------------------0-------------------0
| Choke             | Blatant Choke      | A                 |
|                   | Claw               | Y                 |
|                   | Locked             |                   |
| Mount             | Fuji Arm Bar       | X                 |
|                   | Locked             |                   |
| Hold Legs         | Fist to Groin      | A                 |
|                   | Kick to Groin      | Y                 |
|                   | Texas Clover Leaf  | X                 |
0-------------------0--------------------0-------------------0

0--------------------0
| Opponent in Corner |
0-------------------00-------------------------0-------------0
| Facing In         | Lean In Choke            | Y           |
|                   | Locked                   |             |
| Facing Out        | Rake Eyes                | Y           |
| Sit TB            | Bulldog                  | Y           |
| Sit Corner        | Drop Kick to Nuts        | Y           |
| Tree of Woe       | Stand on Nuts            | Y           |
0-------------------0--------------------------0-------------0

0----------------------0
| Turnbuckle           |
0----------------------0-------------------0-----------------0
| Opp Dizzy Standing   | Crossbody         | Any direction+A |
| Opp Ready Position   | Missile Drop Kick | Any direction+A |
| Opp Dizzy Ground     | Kamikaze Headbutt | Any direction+A |
|                      | Locked            |                 |
| Opp Dizzy Out Stand  | Crossbody         | Any direction+A |
| Opp Dizzy Out Ground | Splash            | Any direction+A |
0----------------------0-------------------0-----------------0

0-------------------0
| Apron             |
0-------------------0--------------------0-------------------0
| Tie-up in Ring    | Bring In Hard Way  | Y                 |
| Tie-up on Apron   | Bring Out Hard Way | Y                 |
| SB Floor Stand    | Locked             |                   |
| SB Floor Ground   | Locked             |                   |
0-------------------0--------------------0-------------------0

0-------------------0
| Opponent Running  |
0-------------------0--------------------0-------------------0
| Standing          | Drop Toe Hold      | A                 |
|                   | Locked             |                   |
0-------------------0--------------------0-------------------0

0---------------------0
| Running             |
0---------------------0---------------------0----------------0
| Opponent Standing   | Running Crossbody   | A, Y, or X     |
| Opponent on Ground  | Running Senton      | A, Y, or X     |
| Opponent in Corner  | Flying Butt         | A, Y, or X     |
| Opponent Corner Sit | Shoulder Block      | A, Y, or X     |
| Tree of Woe         | Shoulder Block      | A, Y, or X     |
0---------------------0---------------------0----------------0

0-------------------0--------------------0-------------------0
| Weapon Attack     | Duck Cane Swing    | Y                 |
0-------------------0--------------------0-------------------0

0------------0
| Terry Funk |
0------------0
Height: 6'1"
Weight: 245 lbs.
Hometown: Amarillo, Texas
Crowd Reaction: Loved
Finisher: Spinning Toe Hold
 - Opponent Ground on Back Dizzy --> Hold Legs --> tap Down on D-Pad
 (Why isn't his finisher the Moonsault? ;.;)
Manager 1: Dory Funk

0-------------------0
| Entrance          |
0-------------------0--------------------0-------------------0
|                   | Basic Wave         | A                 |
|                   | Two Fists Up       | Y                 |
|                   | Hand on Hips       | X                 |
|                   | Walk One Fist Up   | B                 |
0-------------------0--------------------0-------------------0

0-------------------0
| Ready Position    |
0-------------------0--------------------0-------------------0
| Weak Strike       | Chop               | A                 |
| Medium Strike     | Lean-In Uppercut   | Left or Right + A |
| Strong Strike     | Big Punch to Head  | Up or Down + A    |
| Front Standing    | Sidewalk Slam      | Y                 |
|                   | Headbutt           | Left or Right + Y |
|                   | Locked             |                   |
| Behind            | School Boy Pin     | Y                 |
|                   | Side Slam          | Left or Right + Y |
0-------------------0--------------------0-------------------0

0-------------------0
| Tie-up            |
0-------------------0-------------------------0--------------0
| Vertical Suplex   | Hanging Brain Buster    | A            |
|                   | Rolling Suplex          | Y            |
| Scoop Slam        | Shoulder Breaker        | A            |
|                   | Side Neck Buster        | Y            |
| Head Between Legs | Fall Back Piledriver    | A            |
|                   | Locked                  |              |
| Belly-to-Belly    | Inverted Piledriver     | A            |
|                   | Locked                  |              |
0-------------------0-------------------------0--------------0

0-------------------0
| Grab From Behind  |
0-------------------0------------------------0---------------0
| Gut Wrench        | Reverse Powerbomb-Plex | A             |
|                   | Locked                 |               |
| Samoan Drop       | Twirling Samoan        | A             |
|                   | Locked                 |               |
| Full Nelson       | Doujimi Submission     | A             |
|                   | Locked                 |               |
0-------------------0------------------------0---------------0

0-------------------0
| Bent Over         |
0-------------------0-----------------------0----------------0
| Front             | DDT                   | Y              |
|                   | Butterfly Suplex      | Left/Right + Y |
| Behind            | Bulldog               | Y              |
|                   | Cobra Twist           | Left/Right + Y |
0-------------------0-----------------------0----------------0

0--------------------0
| Opponent on Ground |
0-------------------00
| On Belly          |
0-------------------0--------------------0-------------------0
| Head              | Crossface Punches  | Y                 |
| Side              | Oklahoma Roll      | Y                 |
| Feet              | Dragon Cross       | Y                 |
0-------------------0--------------------0-------------------0
| On Back           |
0-------------------0--------------------0-------------------0
| Choke             | Blatant Choke      | A                 |
|                   | Locked             |                   |
| Mount             | Head Shot Combo    | X                 |
| Hold Legs         | Kick to Groin      | A                 |
|                   | Locked             |                   |
0-------------------0--------------------0-------------------0

0--------------------0
| Opponent in Corner |
0-------------------00-------------------0-------------------0
| Facing In         | Big Double Chop    | Y                 |
|                   | Punch Combo        | Left or Right + Y |
| Facing Out        | Rake Eyes          | Y                 |
| Sit TB            | Bulldog            | Y                 |
| Sit Corner        | Drop Kick to Nuts  | Y                 |
| Tree of Woe       | Punch Combo        | Y                 |
0-------------------0--------------------0-------------------0

0----------------------0
| Turnbuckle           |
0----------------------0-----------------0-------------------0
| Opp Dizzy Standing   | Crossbody       | Any direction + A |
| Opp Ready Position   | Shoulder Block  | Any direction + A |
| Opp Dizzy Ground     | Moonsault       | Any direction + A |
| Opp Dizzy Out Stand  | Crossbody       | Any direction + A |
| Opp Dizzy Out Ground | Senton Bomb     | Any direction + A |
0----------------------0-----------------0-------------------0

0-------------------0
| Apron             |
0-------------------0--------------------0-------------------0
| Tie-up in Ring    | Piledriver         | Y                 |
| Tie-up on Apron   | Piledriver         | Y                 |
| SB Standing       | SB Lariat          | Y                 |
| SB Ground         | Leg Drop           | Y                 |
| SB Floor Stand    | Locked             |                   |
| SB Floor Ground   | Locked             |                   |
| Standing Plancha  | Top Rope Plancha   | A                 |
0-------------------0--------------------0-------------------0

0-------------------0
| Opponent Running  |
0-------------------0--------------------0-------------------0
| Standing          | Knee to Face       | A                 |
|                   | Hooked Clothesline | Y                 |
0-------------------0--------------------0-------------------0

0---------------------0
| Running             |
0---------------------0----------------------0---------------0
| Opponent Standing   | Vertical Body Splash | A, Y, or X    |
| Opponent on Ground  | Running Stomp        | A, Y, or X    |
| Opponent in Corner  | Back Elbow           | A, Y, or X    |
| Opponent Corner Sit | Shoulder Block       | A, Y, or X    |
| Opponent Outside    | Running Plancha      | A, Y, or X    |
| Tree of Woe         | Shoulder Block       | A, Y, or X    |
0---------------------0----------------------0---------------0

0-------------------0--------------------0-------------------0
| Weapon Attack     | Triple Can Hit     | Y                 |
0-------------------0--------------------0-------------------0

0------------0
| Don Muraco |
0------------0
Height: 6'3"
Weight: 270 lbs.
Hometown: Sunset Beach, Hawaii
Crowd Reaction: Hated
Finisher: Muraco Hammer
 - Tie-up --> Belly-to-Belly --> tap Down on the D-pad
Manager 1: Albano

0-------------------0
| Entrance          |
0-------------------0---------------------0------------------0
|                   | Stop and Taunt Fans | A                |
|                   | Pound Chest         | Y                |
|                   | Arm Flex Wave       | X                |
|                   | Threaten Crowd      | B                |
0-------------------0---------------------0------------------0

0-------------------0
| Ready Position    |
0-------------------0---------------------0-------------------0
| Weak Strike       | Gut Shot            | A                 |
| Medium Strike     | Right Jab           | Left or Right + A |
| Strong Strike     | Big Punch to Head   | Up or Down + A    |
| Front Standing    | Gorilla Press Slam  | Y                 |
|                   | Falling Clothesline | Left or Right + Y |
|                   | Locked              |                   |
| Behind            | Atomic Drop         | Y                 |
|                   | Reverse Suplex      | Left or Right + Y |
0-------------------0---------------------0-------------------0

0-------------------0
| Tie-up            |
0-------------------0-------------------------0--------------0
| Vertical Suplex   | Hanging Vertical Suplex | A            |
|                   | Hanging Brain Buster    | Y            |
|                   | Hanging Powerslam       | X            |
|                   | Locked                  |              |
| Scoop Slam        | Twirl Forward Slam      | A            |
|                   | Fall Forward Slam       | Y            |
|                   | Fall Away Slam          | X            |
|                   | Locked                  |              |
| Head Between Legs | Shoulder Powerbomb      | A            |
|                   | Sit Out Powerbomb       | Y            |
|                   | Sit Out Piledriver      | X            |
|                   | Locked                  |              |
| Belly-to-Belly    | Inverted Piledriver     | A            |
|                   | Fly Swatter             | Y            |
|                   | Locked                  |              |
0-------------------0-------------------------0--------------0

0-------------------0
| Grab From Behind  |
0-------------------0----------------------0-----------------0
| Gut Wrench        | Rolling German       | A               |
|                   | Fall Back            | Y               |
|                   | Locked               |                 |
| Samoan Drop       | Falling Reverse DDT  | A               |
|                   | Mummy Driver         | Y               |
| Full Nelson       | Katahajime Plex      | A               |
|                   | Full Nelson Slam     | Y               |
0-------------------0----------------------0-----------------0

0-------------------0
| Bent Over         |
0-------------------0-----------------------0----------------0
| Front             | Gutwrench Powerbomb   | Y              |
|                   | Butterfly Suplex      | Left/Right + Y |
|                   | Locked                |                |
| Behind            | Rack                  | Y              |
|                   | Pumphandle Powerslam  | Left/Right + Y |
0-------------------0-----------------------0----------------0

0--------------------0
| Opponent on Ground |
0-------------------00
| On Belly          |
0-------------------0--------------------0-------------------0
| Head              | Camel Clutch       | Y                 |
| Side              | Oklahoma Roll      | Y                 |
| Feet              | Romero Chinlock    | Y                 |
0-------------------0--------------------0-------------------0
| On Back           |
0-------------------0--------------------0-------------------0
| Choke             | Surfboard Stretch  | A                 |
|                   | Blatant Choke      | Y                 |
| Mount             | Head Shot Combo    | X                 |
|                   | Choke Punch        | Y                 |
| Hold Legs         | Elevated Crab      | A                 |
|                   | Fist to Groin      | Y                 |
|                   | Locked             |                   |
0-------------------0--------------------0-------------------0

0--------------------0
| Opponent in Corner |
0-------------------00--------------------------0------------0
| Facing In         | Big Double Chop           | Y          |
|                   | Locked                    |            |
| Facing Out        | Splash Mountain Powerbomb | Y          |
| Sit TB            | Press Slam                | Y          |
| Sit Corner        | Corner Powerbomb          | Y          |
| Tree of Woe       | Elbow to Nuts             | Y          |
0-------------------0---------------------------0------------0

0-------------------0
| Apron             |
0-------------------0--------------------0-------------------0
| Tie-up in Ring    | Piledriver         | Y                 |
| Tie-up on Apron   | Piledriver         | Y                 |
0-------------------0--------------------0-------------------0

0-------------------0
| Opponent Running  |
0-------------------0--------------------0-------------------0
| Standing          | Powerslam          | A                 |
|                   | Locked             |                   |
0-------------------0--------------------0-------------------0

0---------------------0
| Running             |
0---------------------0---------------------0----------------0
| Opponent Standing   | Clothesline         | A, Y, or X     |
| Opponent on Ground  | Knee Drop           | A, Y, or X     |
| Opponent in Corner  | Avalanche           | A, Y, or X     |
| Opponent Corner Sit | Shoulder Block      | A, Y, or X     |
| Tree of Woe         | Shoulder Block      | A, Y, or X     |
0---------------------0---------------------0----------------0

0-------------------0--------------------0-------------------0
| Weapon Attack     | Duck Cane Swing    | Y                 |
0-------------------0--------------------0-------------------0

0-------------------------0
| Jerry "the King" Lawler |
0-------------------------0
Height: 6'0"
Weight: 235 lbs.
Hometown: Memphis, Tennessee
Crowd Reaction: Loved
Finisher: Fall Back Pile Driver
 - Grapple --> Head Between Legs --> Down on D-pad

0-------------------0
| Entrance          |
0-------------------0---------------------0------------------0
|                   | Flex One Up         | A                |
|                   | Basic Wave          | Y                |
|                   | Walk One Fist Up    | X                |
|                   | Arms Out            | B                |
0-------------------0---------------------0------------------0

0-------------------0
| Ready Position    |
0-------------------0--------------------0-------------------0
| Weak Strike       | Gut Shot           | A                 |
| Medium Strike     | Right Jab          | Left or Right + A |
| Strong Strike     | Big Left Punch     | Up or Down + A    |
| Front Standing    | Sidewalk Slam      | Y                 |
|                   | Small Package      | Left or Right + Y |
|                   | Locked             |                   |
| Behind            | School Boy Pin     | Y                 |
|                   | Low Blow           | Left or Right + Y |
0-------------------0--------------------0-------------------0

0-------------------0
| Tie-up            |
0-------------------0-------------------------0--------------0
| Vertical Suplex   | Snap Suplex             | A            |
|                   | Seated Front Suplex     | Y            |
| Scoop Slam        | Shoulder Breaker        | A            |
|                   | Side Neck Buster        | Y            |
| Head Between Legs | Powerbomb               | A            |
|                   | Fall Forward Powerbomb  |              |
| Belly-to-Belly    | Belly-to-Belly Suplex   | A            |
|                   | Spinning Belly-to-Belly | Y            |
0-------------------0-------------------------0--------------0

0-------------------0
| Grab From Behind  |
0-------------------0--------------------0-------------------0
| Gut Wrench        | German Suplex      | A                 |
|                   | Belly-Back Suplex  | Y                 |
| Samoan Drop       | Face Drop          | A                 |
|                   | Locked             |                   |
| Full Nelson       | Russian Leg Sweep  | A                 |
|                   | Katahajime         | Y                 |
0-------------------0--------------------0-------------------0

0-------------------0
| Bent Over         |
0-------------------0--------------------0-------------------0
| Front             | Impact 0DDT        | Y                 |
|                   | Gutwrench Suplex   | Left or Right + Y |
| Behind            | Bulldog            | Y                 |
|                   | Back Breaker       | Left or Right + Y |
0-------------------0--------------------0-------------------0

0--------------------0
| Opponent on Ground |
0-------------------00
| On Belly          |
0-------------------0--------------------0-------------------0
| Head              | Crossface Punches  | Y                 |
| Side              | Oklahoma Roll      | Y                 |
| Feet              | Dragon Cross       | Y                 |
0-------------------0--------------------0-------------------0
| On Back           |
0-------------------0--------------------0-------------------0
| Choke             | Blatant Choke      | A                 |
|                   | Locked             |                   |
| Mount             | Head Shot Combo    | X                 |
| Hold Legs         | Figure Four        | A                 |
|                   | Locked             |                   |
0-------------------0--------------------0-------------------0

0--------------------0
| Opponent in Corner |
0-------------------00--------------------0------------------0
| Facing In         | Climb TB and Pummel | Y                |
|                   | Big Double Chop     | Left/Right + Y   |
| Facing Out        | Turn Post Slam      | Y                |
| Sit TB            | Bulldog             | Y                |
| Sit Corner        | Slingshot           | Y                |
| Tree of Woe       | Shoulder Thrusts    | Y                |
0-------------------0---------------------0------------------0

0----------------------0
| Turnbuckle           |
0----------------------0------------------0------------------0
| Opp Dizzy Standing   | Double Axehandle | Any direction+ A |
| Opp Ready Position   | Double Axehandle | Any direction+ A |
| Opp Dizzy Ground     | Leaping Elbow    | Any direction+ A |
| Opp Dizzy Out Stand  | Locked           |                  |
| Opp Dizzy Out Ground | Locked           |                  |
0----------------------0------------------0------------------0

0-------------------0
| Apron             |
0-------------------0--------------------0-------------------0
| Tie-up in Ring    | Pile Driver        | Y                 |
| Tie-up on Apron   | Pile Driver        | Y                 |
| SB Standing       | Locked             |                   |
| SB Ground         | Locked             |                   |
| SB Floor Stand    | Locked             |                   |
| SB Floor Ground   | Locked             |                   |
| Standing Plancha  | Standing Plancha   | A                 |
0-------------------0--------------------0-------------------0

0-------------------0
| Opponent Running  |
0-------------------0--------------------0-------------------0
| Standing          | Back Body Drop     | A                 |
|                   | Spine Buster       | Y                 |
0-------------------0--------------------0-------------------0

0---------------------0
| Running             |
0---------------------0---------------------0----------------0
| Opponent Standing   | Shoulderblock       | A, Y, or X     |
| Opponent on Ground  | Knee Drop           | A, Y, or X     |
| Opponent in Corner  | Running Clothesline | A, Y, or X     |
| Opponent Corner Sit | Shoulderblock       | A, Y, or X     |
| Opponent Outside    | Running Plancha     | A              |
| Tree of Woe         | Shoulderblock       | A, Y, or X     |
0---------------------0---------------------0----------------0

0-------------------0--------------------0-------------------0
| Weapon Attack     | Double Chair Shot  | Y                 |
0-------------------0--------------------0-------------------0

0----------------------------0
| George "the Animal" Steele |
0----------------------------0
Height: 6'1"
Weight: 290 lbs.
Hometown: Detroit, Michigan
Crowd Reaction: Loved
Finisher: Flying Hammerlock
 - Grab from behind --> Full Nelson --> tap Down on D-pad

0-------------------0
| Entrance          |
0-------------------0---------------------0------------------0
|                   | Basic Wave          | A                |
|                   | Steele Hoot         | Y                |
|                   | Steele Look Around  | X                |
|                   | Look at Fans        | B                |
0-------------------0---------------------0------------------0

0-------------------0
| Ready Position    |
0-------------------0--------------------0-------------------0
| Weak Strike       | Double Fist Punch  | A                 |
| Medium Strike     | Open Palm Strike   | Left or Right + A |
| Strong Strike     | Big Punch to Head  | Up or Down + A    |
| Front Standing    | Hair Grab Takeover | Y                 |
|                   | Sidewalk Slam      | Left or Right + Y |
|                   | Sit Out Choke Slam | Up or Down + Y    |
| Behind            | Atomic Drop        | Y                 |
|                   | School Boy Pin     | Left or Right + Y |
0-------------------0--------------------0-------------------0

0-------------------0
| Tie-up            |
0-------------------0------------------------0---------------0
| Vertical Suplex   | Vertical Suplex        | A             |
|                   | Corkscrew Suplex       | Y             |
|                   | Locked                 |               |
| Scoop Slam        | Side Neck Buster       | A             |
|                   | Seated Driver          | Y             |
|                   | Locked                 |               |
| Head Between Legs | Sit Out Face Buster    | A             |
|                   | Sit Out Pile Driver    | Y             |
|                   | Locked                 |               |
| Belly-to-Belly    | Bear Hug Slam          | A             |
|                   | Inverted Pile Driver   | Y             |
|                   | Locked                 |               |
0-------------------0------------------------0---------------0

0-------------------0
| Grab From Behind  |
0-------------------0---------------------0------------------0
| Gut Wrench        | Belly-Back Slam     | A                |
|                   | Belly-Back Suplex   | Y                |
|                   | Locked              |                  |
| Samoan Drop       | Chest Breaker       | A                |
|                   | Face Drop           | Y                |
|                   | Locked              |                  |
| Full Nelson       | Full Nelson Sit Out | A                |
|                   | Reverse Face Buster | Y                |
|                   | Locked              |                  |
0-------------------0---------------------0------------------0

0-------------------0
| Bent Over         |
0-------------------0--------------------0-------------------0
| Front             | Double-Arm DDT     | Y                 |
|                   | DDT                | Left or Right + Y |
| Behind            | Stretch Plum       | Y                 |
|                   | Pumphandle Slam    | Left or Right + Y |
0-------------------0--------------------0-------------------0

0--------------------0
| Opponent on Ground |
0-------------------00
| On Belly          |
0-------------------0--------------------0-------------------0
| Head              | Diving Headbutt    | Y                 |
| Side              | Rings              | Y                 |
| Feet              | Dragon Cross       | Y                 |
0-------------------0--------------------0-------------------0
| On Back           |
0-------------------0--------------------0-------------------0
| Choke             | Spinal Tap         | A                 |
|                   | Claw               | Y                 |
|                   | Locked             |                   |
| Mount             | Head Shot Combo    | X                 |
|                   | Two Elbows         | Y                 |
| Hold Legs         | Kick to Groin      | A                 |
|                   | Ankle Stretch      | Y                 |
|                   | Locked             |                   |
0-------------------0--------------------0-------------------0

0--------------------0
| Opponent in Corner |
0-------------------00----------------------0----------------0
| Facing In         | Big Double Chop       | Y              |
|                   | Punch Combo           | Left/Right + Y |
| Facing Out        | Rake Eyes             | Y              |
| Sit TB            | Belly-Belly Superplex | Y              |
| Sit Corner        | Stand on Chest        | Y              |
| Tree of Woe       | Shoulder Thrusts      | Y              |
0-------------------0-----------------------0----------------0

0----------------------0
| Turnbuckle           |
0----------------------0-----------------0-------------------0
| Opp Ready Position   | Locked          |                   |
0----------------------0-----------------0-------------------0

0-------------------0
| Apron             |
0-------------------0--------------------0-------------------0
| Tie-up in Ring    | Bring In Hard Way  | Y                 |
| Tie-up on Apron   | Bring Out Hard Way | Y                 |
0-------------------0--------------------0-------------------0

0-------------------0
| Opponent Running  |
0-------------------0--------------------0-------------------0
| Standing          | Flapjack           | A                 |
|                   | Back Body Drop     | Y                 |
0-------------------0--------------------0-------------------0

0---------------------0
| Running             |
0---------------------0---------------------0----------------0
| Opponent Standing   | Shoulder Tackle     | A, Y, or X     |
| Opponent on Ground  | Rolling Stomp       | A, Y, or X     |
| Opponent in Corner  | Running Clothesline | A, Y, or X     |
| Opponent Corner Sit | Shoulderblock       | A, Y, or X     |
| Tree of Woe         | Shoulderblock       | A, Y, or X     |
0---------------------0---------------------0----------------0

0-------------------0--------------------0-------------------0
| Weapon Attack     | Double Chair       | Y                 |
0-------------------0--------------------0-------------------0

0----------------------0
| "Mr. USA" Tony Atlas |
0----------------------0
Height: 6'2"
Weight: 255 lbs.
Hometown: Roanoke, Virginia
Crowd Reaction: Loved
Finisher: Gorilla Press Slam
 - Opponent Ready Position --> Tap Down on D-Pad

0-------------------0
| Entrance          |
0-------------------0---------------------0------------------0
|                   | Flex One Up         | A                |
|                   | Flex Up             | Y                |
|                   | Slap Hands Left     | X                |
|                   | Slap Hands Right    | B                |
0-------------------0---------------------0------------------0

0-------------------0
| Ready Position    |
0-------------------0--------------------0-------------------0
| Weak Strike       | Punch to Head      | A                 |
| Medium Strike     | Open Palm Strike   | Left or Right + A |
| Strong Strike     | Drop Kick          | Up or Down + A    |
| Front Standing    | Headbutt           | Y                 |
|                   | Hip Toss           | Left or Right + Y |
|                   | Locked             |                   |
| Behind            | Reverse DDT        | Y                 |
|                   | Abstretch          | Left or Right + Y |
0-------------------0--------------------0-------------------0

0-------------------0
| Tie-up            |
0-------------------0-------------------------0--------------0
| Vertical Suplex   | Hanging Vertical Suplex | A            |
|                   | Hanging Brain Buster    | Y            |
| Scoop Slam        | Twirl Forward Slam      | A            |
|                   | Fire Thunder Driver     | Y            |
| Head Between Legs | Sit Out Powerbomb       | A            |
|                   | Underhook Pile Driver   | Y            |
| Belly-to-Belly    | Overhead Belly-to-Belly | A            |
|                   | Head Arm Suplex         | Y            |
0-------------------0-------------------------0--------------0

0-------------------0
| Grab From Behind  |
0-------------------0--------------------0-------------------0
| Gut Wrench        | Rolling German     | A                 |
|                   | Electric Chair     | Y                 |
| Samoan Drop       | Mummy Driver       | A                 |
|                   | Chest Breaker      | Y                 |
| Full Nelson       | Full Nelson Slam   | A                 |
|                   | Locked             |                   |
0-------------------0--------------------0-------------------0

0-------------------0
| Bent Over         |
0-------------------0--------------------0-------------------0
| Front             | Impact DDT         | Y                 |
|                   | Guillotine Scizzor | Left or Right + Y |
| Behind            | Back Breaker       | Y                 |
|                   | Rack               | Left or Right + Y |
0-------------------0--------------------0-------------------0

0--------------------0
| Opponent on Ground |
0-------------------00
| On Belly          |
0-------------------0--------------------0-------------------0
| Head              | Drop Kick to Face  | Y                 |
| Side              | Crossface          | Y                 |
| Feet              | Inverted STF       | Y                 |
0-------------------0--------------------0-------------------0
| On Back           |
0-------------------0--------------------0-------------------0
| Choke             | Scissored Arm Bar  | A                 |
|                   | Locked             |                   |
| Mount             | Head Shot Combo    | X                 |
| Hold Legs         | Ankle Stretch      | A                 |
|                   | Locked             |                   |
0-------------------0--------------------0-------------------0

0--------------------0
| Opponent in Corner |
0-------------------00--------------------------0------------0
| Facing In         | Tornado DDT               | Y          |
|                   | Running Power Slam        | L or R + Y |
| Facing Out        | Splash Mountain Powerbomb | Y          |
| Sit TB            | Press Slam                | Y          |
| Sit Corner        | Corner Powerbomb          | Y          |
| Tree of Woe       | Punch Combo               | Y          |
0-------------------0---------------------------0------------0

0----------------------0
| Turnbuckle           |
0----------------------0-------------------0-----------------0
| Opp Dizzy Standing   | Missile Drop Kick | Any direction+A |
| Opp Ready Position   | Drop Kick         | Any direction+A |
| Opp Dizzy Ground     | Reverse Splash    | Any direction+A |
| Opp Dizzy Out Stand  | Locked            |                 |
| Opp Dizzy Out Ground | Locked            |                 |
0----------------------0-------------------0-----------------0

0-------------------0
| Apron             |
0-------------------0--------------------0-------------------0
| Tie-up in Ring    | Choke Slam         | Y                 |
| Tie-up on Apron   | Choke Slam         | Y                 |
| SB Standing       | Locked             |                   |
| SB Ground         | Locked             |                   |
| SB Floor Stand    | Locked             |                   |
| SB Floor Ground   | Locked             |                   |
| Standing Plancha  | Standing Plancha   | A                 |
0-------------------0--------------------0-------------------0

0-------------------0
| Opponent Running  |
0-------------------0--------------------0-------------------0
| Standing          | Powerslam          | A                 |
|                   | Back Body Drop     | Y                 |
0-------------------0--------------------0-------------------0

0---------------------0
| Running             |
0---------------------0---------------------0----------------0
| Opponent Standing   | Wrap Around DDT     | A, Y, or X     |
| Opponent on Ground  | Front Elbow Drop    | A, Y, or X     |
| Opponent in Corner  | Angled Splash       | A, Y, or X     |
| Opponent Corner Sit | Running Drop Kick   | A, Y, or X     |
| Opponent Outside    | Running Plancha     | A              |
| Tree of Woe         | Running Drop Kick   | A, Y, or X     |
0---------------------0---------------------0----------------0

0-------------------0--------------------0-------------------0
| Weapon Attack     | Triple Can Hit     | Y                 |
0-------------------0--------------------0-------------------0

0------------------------------0
| Ricky "the Dragon" Steamboat |
0------------------------------0
Height: 5'10"
Weight: 235 lbs.
Hometown: Honolulu, Hawaii
Crowd Reaction: Loved
Finisher: Crossbody
 - Opponent Standing Dizzy --> go to turnbuckle and tap Down on D-Pad

0-------------------0
| Entrance          |
0-------------------0--------------------0-------------------0
|                   | Look at Fans       | A                 |
|                   | Snuka Knee Pose    | Y                 |
|                   | Slap Hands Left    | X                 |
|                   | Slap Hands Right   | B                 |
0-------------------0--------------------0-------------------0

0-------------------0
| Ready Position    |
0-------------------0--------------------0-------------------0
| Weak Strike       | Chop               | A                 |
| Medium Strike     | Side Roundhouse    | Left or Right + A |
| Strong Strike     | Roundhouse Kick    | Up or Down + A    |
| Front Standing    | Enziguri           | Y                 |
|                   | Double Roundhouse  | Left or Right + Y |
|                   | Locked             |                   |
| Behind            | Layout Reverse DDT | Y                 |
|                   | School Boy Pin     | Left or Right + Y |
0-------------------0--------------------0-------------------0

0-------------------0
| Tie-up            |
0-------------------0-------------------------0--------------0
| Vertical Suplex   | Vertical Suplex         | A            |
|                   | Front Suplex            | Y            |
| Scoop Slam        | Scoop Slam              | A            |
|                   | Seated Driver           | Y            |
| Head Between Legs | Underhook  Piledriver   | A            |
| Belly-to-Belly    | Northern Lights         | A            |
0-------------------0-------------------------0--------------0

0-------------------0
| Grab From Behind  |
0-------------------0------------------------0---------------0
| Gut Wrench        | Victory Roll Pin       | A             |
|                   | Tiger Suplex           | Y             |
| Samoan Drop       | Face Drop              | A             |
|                   | Elevated Ace Crusher   | Y             |
| Full Nelson       | Dragon Sleeper         | A             |
|                   | Sleeping Neck-Break    | Y             |
0-------------------0------------------------0---------------0

0-------------------0
| Bent Over         |
0-------------------0--------------------0-------------------0
| Front             | Face Buster        | Y                 |
|                   | Spinning DDT       | Left or Right + Y |
| Behind            | Octopus Hold       | Y                 |
0-------------------0--------------------0-------------------0

0--------------------0
| Opponent on Ground |
0-------------------00
| On Belly          |
0-------------------0--------------------0-------------------0
| Head              | Drop Kick to Face  | Y                 |
| Side              | La Magistral Pin   | Y                 |
| Feet              | Inverted STF       | Y                 |
0-------------------0--------------------0-------------------0
| On Back           |
0-------------------0--------------------0-------------------0
| Choke             | Dragon Lock        | A                 |
|                   | Scissored Arm Bar  | Y                 |
| Mount             | Fuji Arm Bar       | X                 |
|                   | Locked             |                   |
| Hold Legs         | Figure Four        | A                 |
|                   | Elevated Crab      | Y                 |
|                   | Locked             |                   |
0-------------------0--------------------0-------------------0

0--------------------0
| Opponent in Corner |
0-------------------00-------------------0-------------------0
| Facing In         | Kick Combo         | Y                 |
|                   | Locked             |                   |
| Facing Out        | Turn Post Slam     | Y                 |
| Sit TB            | Hurricanrana       | Y                 |
| Sit Corner        | Slingshot          | Y                 |
| Tree of Woe       | Shoulder Thrusts   | Y                 |
0-------------------0--------------------0-------------------0

0----------------------0
| Turnbuckle           |
0----------------------0-------------------0-----------------0
| Opp Dizzy Standing   | Jumping Lariat    | Any direction+A |
| Opp Ready Position   | Missile Drop Kick | Any direction+A |
|                      | Locked            |                 |
| Opp Dizzy Ground     | Leaping Elbow     | Any direction+A |
| Opp Dizzy Out Stand  | Locked            |                 |
| Opp Dizzy Out Ground | Locked            |                 |
0----------------------0-------------------0-----------------0

0-------------------0
| Apron             |
0-------------------0--------------------0-------------------0
| Tie-up in Ring    | Sunset Flip        | Y                 |
| Tie-up on Apron   | Sunset Flip        | Y                 |
| SB Standing       | Flip Over Lariat   | Y                 |
| SB Ground         | Flip Over Leg Drop | Y                 |
| SB Floor Stand    | Locked             |                   |
| SB Floor Ground   | Locked             |                   |
| Standing Plancha  | Top Rope Plancha   | A                 |
0-------------------0--------------------0-------------------0

0-------------------0
| Opponent Running  |
0-------------------0--------------------0-------------------0
| Standing          | Fujiwara Arm Bar   | A                 |
|                   | Locked             |                   |
0-------------------0--------------------0-------------------0

0---------------------0
| Running             |
0---------------------0----------------------0---------------0
| Opponent Standing   | Sunset Flip          | A, Y, or X    |
| Opponent on Ground  | Front Elbow Drop     | A, Y, or X    |
| Opponent in Corner  | Monkey Flip          | A, Y, or X    |
| Opponent Corner Sit | Running Drop Kick    | A, Y, or X    |
| Opponent Outside    | Clear Plancha        | A, Y, or X    |
| Tree of Woe         | Running Drop Kick    | A, Y, or X    |
0---------------------0----------------------0---------------0

0-------------------0--------------------0-------------------0
| Weapon Attack     | Double Chair Shot  | Y                 |
0-------------------0--------------------0-------------------0

0-----------------0
| Nikolai Volkoff |
0-----------------0
Height: 6'5"
Weight: 310 lbs.
Hometown: Moscow, Russia
Crowd Reaction: Hated
Finisher: Back Breaker
 - Opponent bent over --> behind --> tap Down on D-pad
Manager 1: Iron Sheik

0-------------------0
| Entrance          |
0-------------------0--------------------0-------------------0
|                   | Two Fists Up       | A                 |
|                   | Flex Up            | Y                 |
|                   | Threaten Crowd     | X                 |
|                   | Point at Ring      | B                 |
0-------------------0--------------------0-------------------0

0-------------------0
| Ready Position    |
0-------------------0--------------------0-------------------0
| Weak Strike       | Chop               | A                 |
| Medium Strike     | Lean In Uppercut   | Left or Right + A |
| Strong Strike     | Big Punch to Head  | Up or Down + A    |
| Front Standing    | Hip Toss           | Y                 |
|                   | One Hand Chokeslam | Left or Right + Y |
|                   | Sit Out Choke Slam | Up or Down + Y    |
| Behind            | Low Blow           | Y                 |
|                   | Abstretch          | Left or Right + Y |
0-------------------0--------------------0-------------------0

0-------------------0
| Tie-up            |
0-------------------0-------------------------0--------------0
| Vertical Suplex   | Fisherman Suplex        | A            |
|                   | Hanging Brain Buster    | Y            |
|                   | Locked                  |              |
| Scoop Slam        | Twirl Forward Slam      | A            |
|                   | Fire Thunder Driver     | Y            |
|                   | Locked                  |              |
| Head Between Legs | Sit Out Powerbomb       | A            |
|                   | Shoulder Powerbomb      | Y            |
|                   | Locked                  |              |
| Belly-to-Belly    | Bear Hug                | A            |
|                   | Head Arm Suplex         | Y            |
|                   | Locked                  |              |
0-------------------0-------------------------0--------------0

0-------------------0
| Grab From Behind  |
0-------------------0------------------------0---------------0
| Gut Wrench        | High Angle Back        | A             |
|                   | Rolling German         | Y             |
|                   | Locked                 |               |
| Samoan Drop       | Samoan Powerbomb       | A             |
|                   | Elevated Ace Crusher   | Y             |
|                   | Locked                 |               |
| Full Nelson       | Russian Leg Sweep      | A             |
|                   | Front Russian Sweep    | Y             |
|                   | Locked                 |               |
0-------------------0------------------------0---------------0

0-------------------0
| Bent Over         |
0-------------------0--------------------0-------------------0
| Front             | Double Arm DDT     | Y                 |
|                   | Butterfly Suplex   | Left or Right + Y |
| Behind            | Cobra Twist        | Y                 |
|                   | Pumphandle Slam    | Left or Right + Y |
0-------------------0--------------------0-------------------0

0--------------------0
| Opponent on Ground |
0-------------------00
| On Belly          |
0-------------------0--------------------0-------------------0
| Head              | Crossface Punches  | Y                 |
| Side              | Bow and Arrow      | Y                 |
| Feet              | STF Submission     | Y                 |
0-------------------0--------------------0-------------------0
| On Back           |
0-------------------0--------------------0-------------------0
| Choke             | Blatant Choke      | A                 |
|                   | Read Chin Lock     | Y                 |
|                   | Locked             |                   |
| Mount             | Head Shot Combo    | X                 |
|                   | Reverse Figure 4   | Y                 |
| Hold Legs         | Fist to Groin      | A                 |
|                   | Kick to Groin      | Y                 |
|                   | Locked             |                   |
0-------------------0--------------------0-------------------0

0--------------------0
| Opponent in Corner |
0-------------------00-------------------0-------------------0
| Facing In         | Big Double Chop    | Y                 |
|                   | Running Power Slam | Left or Right + Y |
| Facing Out        | Choke              | Y                 |
| Sit TB            | Superplex          | Y                 |
| Sit Corner        | Stand on Chest     | Y                 |
| Tree of Woe       | Shoulder Thrusts   | Y                 |
0-------------------0--------------------0-------------------0

0----------------------0
| Turnbuckle           |
0----------------------0-------------------0-----------------0
| Opp Ready Position   | Locked            |                 |
0----------------------0-------------------0-----------------0

0-------------------0
| Apron             |
0-------------------0--------------------0-------------------0
| Tie-up in Ring    | Piledriver         | Y                 |
| Tie-up on Apron   | Piledriver         | Y                 |
0-------------------0--------------------0-------------------0

0-------------------0
| Opponent Running  |
0-------------------0---------------------0------------------0
| Standing          | Impact Spine Buster | A                |
|                   | Power Slam          | Y                |
0-------------------0---------------------0------------------0

0---------------------0
| Running             |
0---------------------0----------------------0---------------0
| Opponent Standing   | Clothesline          | A, Y, or X    |
| Opponent on Ground  | Fist Drop            | A, Y, or X    |
| Opponent in Corner  | Avalanche            | A, Y, or X    |
| Opponent Corner Sit | Shoulder Block       | A, Y, or X    |
| Tree of Woe         | Shoulder Block       | A, Y, or X    |
0---------------------0----------------------0---------------0

0-------------------0--------------------0-------------------0
| Weapon Attack     | Double Chair Shot  | Y                 |
0-------------------0--------------------0-------------------0

0-------------0
| Ted Dibiase |
0-------------0
Height: 6'3"
Weight: 245 lbs.
Hometown: Omaha, Nebraska
Crowd Reaction: Hated
Finisher: DiBiase Dream
 - Grab From Behind --> Full Nelson --> tap Down on D-pad

0-------------------0
| Entrance          |
0-------------------0---------------------0------------------0
|                   | Threaten Crowd      | A                |
|                   | Arms Out            | Y                |
|                   | Stop and Taunt Fans | X                |
|                   | Hand on Hips        | B                |
0-------------------0---------------------0------------------0

0-------------------0
| Ready Position    |
0-------------------0--------------------0-------------------0
| Weak Strike       | Front Kick to Gut  | A                 |
| Medium Strike     | Lean In Uppercut   | Left or Right + A |
| Strong Strike     | Big Punch to Head  | Up or Down + A    |
| Front Standing    | Neck Breaker       | Y                 |
|                   | Enziguri           | Left or Right + Y |
|                   | One Arm Slam       | Up or Down + Y    |
| Behind            | Cobra Slam         | Y                 |
|                   | Reverse DDT        | Left or Right + Y |
0-------------------0--------------------0-------------------0

0-------------------0
| Tie-up            |
0-------------------0-------------------------0--------------0
| Vertical Suplex   | Fisherman Suplex        | A            |
|                   | Seated Front Suplex     | Y            |
| Scoop Slam        | Fall Away Slam          | A            |
|                   | Fall Forward Slam       | Y            |
| Head Between Legs | Fall Back Piledriver    | A            |
|                   | Fall Forward Powerbomb  | Y            |
| Belly-to-Belly    | Northern Lights         | A            |
|                   | Locked                  |              |
0-------------------0-------------------------0--------------0

0-------------------0
| Grab From Behind  |
0-------------------0------------------------0---------------0
| Gut Wrench        | Belly-Back Suplex      | A             |
|                   | High Angle Back        | Y             |
| Samoan Drop       | Death Valley Driver    | A             |
|                   | Locked                 |               |
| Full Nelson       | Russian Leg Sweep      | A             |
|                   | Full Nelson Slam       | Y             |
0-------------------0------------------------0---------------0

0-------------------0
| Bent Over         |
0-------------------0---------------------0------------------0
| Front             | Spinning Neck Break | Y                |
|                   | DDT                 | Left or Right +Y |
| Behind            | Cobra Twist         | Y                |
|                   | Locked              |                  |
0-------------------0---------------------0------------------0

0--------------------0
| Opponent on Ground |
0-------------------00
| On Belly          |
0-------------------0--------------------0-------------------0
| Head              | Crossface Punches  | Y                 |
| Side              | La Magistral Pin   | Y                 |
| Feet              | Romero Chinlock    | Y                 |
0-------------------0--------------------0-------------------0
| On Back           |
0-------------------0--------------------0-------------------0
| Choke             | Blatant Choke      | A                 |
|                   | Scissored Arm Bar  | Y                 |
|                   | Locked             |                   |
| Mount             | Two Elbows         | X                 |
|                   | Locked             |                   |
| Hold Legs         | Fist to Groin      | A                 |
|                   | Figure Four        | Y                 |
|                   | Boston Crab        | X                 |
0-------------------0--------------------0-------------------0

0--------------------0
| Opponent in Corner |
0-------------------00-------------------0-------------------0
| Facing In         | Punch Combo        | Y                 |
|                   | Locked             |                   |
| Facing Out        | Choke              | Y                 |
| Sit TB            | Superplex          | Y                 |
| Sit Corner        | Slingshot          | Y                 |
| Tree of Woe       | Elbow to Nuts      | Y                 |
0-------------------0--------------------0-------------------0

0----------------------0
| Turnbuckle           |
0----------------------0-------------------0-----------------0
| Opp Dizzy Standing   | DDT               | Any direction+A |
| Opp Ready Position   | Shoulder Block    | Any direction+A |
| Opp Dizzy Ground     | Leaping Elbow     | Any direction+A |
|                      | Locked            |                 |
| Opp Dizzy Out Stand  | Double Axe Handle | Any direction+A |
| Opp Dizzy Out Ground | Splash            | Any direction+A |
0----------------------0-------------------0-----------------0

0-------------------0
| Apron             |
0-------------------0--------------------0-------------------0
| Tie-up in Ring    | Bring In Hard Way  | Y                 |
| Tie-up on Apron   | Bring Out Hard Way | Y                 |
| SB Floor Stand    | Locked             |                   |
| SB Floor Ground   | Locked             |                   |
0-------------------0--------------------0-------------------0

0-------------------0
| Opponent Running  |
0-------------------0--------------------0-------------------0
| Standing          | Back Body Drop     | A                 |
|                   | Locked             |                   |
0-------------------0--------------------0-------------------0

0---------------------0
| Running             |
0---------------------0----------------------0---------------0
| Opponent Standing   | Vertical Body Splash | A, Y, or X    |
| Opponent on Ground  | Fist Drop            | A, Y, or X    |
| Opponent in Corner  | Angled Splash        | A, Y, or X    |
| Opponent Corner Sit | Shoulder Block       | A, Y, or X    |
| Tree of Woe         | Shoulder Block       | A, Y, or X    |
0---------------------0----------------------0---------------0

0-------------------0--------------------0-------------------0
| Weapon Attack     | Double Chair       | Y                 |
0-------------------0--------------------0-------------------0

0--------------0
| Tito Santana |
0--------------0
Height: 6'3"
Weight: 245 lbs.
Hometown: Tocula, Mexico
Crowd Reaction: Loved
Finisher: Flying Forearm
 - Running --> Opponent Standing --> tap Down on D-pad

0-------------------0
| Entrance          |
0-------------------0---------------------0------------------0
|                   | Basic Wave          | A                |
|                   | Hand on Hips        | Y                |
|                   | Slap Hands Left     | X                |
|                   | Slap Hands Right    | B                |
0-------------------0---------------------0------------------0

0-------------------0
| Ready Position    |
0-------------------0--------------------0-------------------0
| Weak Strike       | Shin Kick          | A                 |
| Medium Strike     | Calf Kick          | Left or Right + A |
| Strong Strike     | Drop Kick          | Up or Down + A    |
| Front Standing    | Fireman's Carry    | Y                 |
|                   | Stinger            | Left or Right + Y |
|                   | Locked             |                   |
| Behind            | Bulldog            | Y                 |
|                   | Abstretch          | Left or Right + Y |
0-------------------0--------------------0-------------------0

0-------------------0
| Tie-up            |
0-------------------0-------------------------0--------------0
| Vertical Suplex   | Snap Suplex             | A            |
|                   | Vertical Crusher        | Y            |
| Scoop Slam        | Scoop Slam              | A            |
|                   | Seated Driver           | Y            |
| Head Between Legs | Sit Out Piledriver      | A            |
| Belly-to-Belly    | Northern Lights         | A            |
0-------------------0-------------------------0--------------0

0-------------------0
| Grab From Behind  |
0-------------------0------------------------0---------------0
| Gut Wrench        | Tiger Suplex           | A             |
|                   | Victory Roll Pin       | Y             |
| Samoan Drop       | Samoan Drop            | A             |
|                   | Fireman Toss           | Y             |
| Full Nelson       | Full Nelson Sweep      | A             |
|                   | Dragon Suplex          | Y             |
0-------------------0------------------------0---------------0

0-------------------0
| Bent Over         |
0-------------------0--------------------0-------------------0
| Front             | Spinning DDT       | Y                 |
|                   | Kamikaze           | Left or Right + Y |
| Behind            | Octopus Hold       | Y                 |
0-------------------0--------------------0-------------------0

0--------------------0
| Opponent on Ground |
0-------------------00
| On Belly          |
0-------------------0--------------------0-------------------0
| Head              | Drop Kick to Face  | Y                 |
| Side              | La Magistral Pin   | Y                 |
| Feet              | Surfboard          | Y                 |
0-------------------0--------------------0-------------------0
| On Back           |
0-------------------0---------------------0------------------0
| Choke             | Surfboard Stretch   | A                |
|                   | Flip Over Neck Whip | Y                |
| Mount             | American Figure 4   | X                |
|                   | Locked              |                  |
| Hold Legs         | Spinning Toe Hold   | A                |
|                   | Boston Crab         | Y                |
|                   | Locked              |                  |
0-------------------0---------------------0------------------0

0--------------------0
| Opponent in Corner |
0-------------------00-------------------0-------------------0
| Facing In         | Tornado Crusher    | Y                 |
|                   | Locked             |                   |
| Facing Out        | Turn Post Slam     | Y                 |
| Sit TB            | Hurricanrana       | Y                 |
| Sit Corner        | Slingshot          | Y                 |
| Tree of Woe       | Shoulder Thrusts   | Y                 |
0-------------------0--------------------0-------------------0

0----------------------0
| Turnbuckle           |
0----------------------0-----------------0-------------------0
| Opp Dizzy Standing   | Slice           | Any direction + A |
| Opp Ready Position   | Jumping Lariat  | Any direction + A |
|                      | Locked          |                   |
| Opp Dizzy Ground     | Leg Drop        | Any direction + A |
| Opp Dizzy Out Stand  | Locked          |                   |
| Opp Dizzy Out Ground | Locked          |                   |
0----------------------0-----------------0-------------------0

0-------------------0
| Apron             |
0-------------------0--------------------0-------------------0
| Tie-up in Ring    | Bring In Hard Way  | Y                 |
| Tie-up on Apron   | Sunset Flip        | Y                 |
| SB Standing       | SB Lariat          | Y                 |
| SB Ground         | SB Splash          | Y                 |
| SB Floor Stand    | Locked             |                   |
| SB Floor Ground   | Locked             |                   |
| Standing Plancha  | Top Rope Plancha   | Y                 |
0-------------------0--------------------0-------------------0

0-------------------0
| Opponent Running  |
0-------------------0--------------------0-------------------0
| Standing          | Back Body Drop     | A                 |
|                   | Locked             |                   |
0-------------------0--------------------0-------------------0

0---------------------0
| Running             |
0---------------------0----------------------0---------------0
| Opponent Standing   | Sunset Flip          | A, Y, or X    |
| Opponent on Ground  | Running Elbow Drop   | A, Y, or X    |
| Opponent in Corner  | Monkey Flip          | A, Y, or X    |
| Opponent Corner Sit | Running Drop Kick    | A, Y, or X    |
| Opponent Outside    | Clear Plancha        | A             |
| Tree of Woe         | Running Drop Kick    | A, Y, or X    |
0---------------------0----------------------0---------------0

0-------------------0--------------------0-------------------0
| Weapon Attack     | Double Chair Shot  | Y                 |
0-------------------0--------------------0-------------------0

0-----------------0
| King Kong Bundy |
0-----------------0
Height: 6'4"
Weight: 445 lbs.
Hometown: Atlantic City, NJ
Crowd Reaction: Hated
Finisher: Avalanche
 - Running --> Opponent in Corner --> tap Down on D-pad

0-------------------0
| Entrance          |
0-------------------0---------------------0------------------0
|                   | Threaten Crowd      | A                |
|                   | Arm Flex Wave       | Y                |
|                   | Pound Chest         | X                |
|                   | Stop and Taunt Fans | B                |
0-------------------0---------------------0------------------0

0-------------------0
| Ready Position    |
0-------------------0--------------------0-------------------0
| Weak Strike       | Chop               | A                 |
| Medium Strike     | Open Palm Strike   | Left or Right + A |
| Strong Strike     | Big Left Punch     | Up or Down + A    |
| Front Standing    | Sit Out Choke Slam | Y                 |
|                   | Inverted Stinger   | Left or Right + Y |
|                   | One Arm Slam       | Up or Down + Y    |
| Behind            | Low Blow           | Y                 |
|                   | DDT Slam           | Left or Right + Y |
0-------------------0--------------------0-------------------0

0-------------------0
| Tie-up            |
0-------------------0-------------------------0--------------0
| Vertical Suplex   | Vertical Suplex         | A            |
|                   | Fisherman Buster        | Y            |
|                   | Locked                  |              |
| Scoop Slam        | Twirl Forward Slam      | A            |
|                   | Fire Thunder Driver     | Y            |
|                   | Locked                  |              |
| Head Between Legs | Cradle Piledriver       | A            |
|                   | Elevated Powerbomb      | Y            |
|                   | Locked                  |              |
| Belly-to-Belly    | Bear Hug                | A            |
|                   | Bear Hug Slam           | Y            |
|                   | Locked                  |              |
0-------------------0-------------------------0--------------0

0-------------------0
| Grab From Behind  |
0-------------------0------------------------0---------------0
| Gut Wrench        | Release German         | A             |
|                   | 360 Belly-to-Back      | Y             |
|                   | Locked                 |               |
| Samoan Drop       | Samoan Drop            | A             |
|                   | Chest Breaker          | Y             |
|                   | Locked                 |               |
| Full Nelson       | Sleeper Submission     | A             |
|                   | Full Nelson Sit Out    | Y             |
|                   | Locked                 |               |
0-------------------0------------------------0---------------0

0-------------------0
| Bent Over         |
0-------------------0---------------------0------------------0
| Front             | Forward Face Buster | Y                |
|                   | Rocker Dropper      | Left or Right +Y |
| Behind            | Back Breaker        | Y                |
|                   | Pumphandle Slam     | Left or Right +Y |
0-------------------0---------------------0------------------0

0--------------------0
| Opponent on Ground |
0-------------------00
| On Belly          |
0-------------------0--------------------0-------------------0
| Head              | Crossface Punches  | Y                 |
| Side              | Bow and Arrow      | Y                 |
| Feet              | Romero Chinlock    | Y                 |
0-------------------0--------------------0-------------------0
| On Back           |
0-------------------0--------------------0-------------------0
| Choke             | Claw               | A                 |
|                   | Blatant Choke      | Y                 |
|                   | Locked             |                   |
| Mount             | Head Shot Combo    | X                 |
|                   | Choke Punch        | Y                 |
| Hold Legs         | Fist to Groin      | A                 |
|                   | Boston Crab        | Y                 |
|                   | Locked             |                   |
0-------------------0--------------------0-------------------0

0--------------------0
| Opponent in Corner |
0-------------------00--------------------------0------------0
| Facing In         | Running Powerslam         | Y          |
|                   | Butt Thrust               | L or R + Y |
| Facing Out        | Splash Mountain Powerbomb | Y          |
| Sit TB            | Belly-to-Belly Superplex  | Y          |
| Sit Corner        | Corner Powerbomb          | Y          |
| Tree of Woe       | Shoulder Thrusts          | Y          |
0-------------------0---------------------------0------------0

0-------------------0
| Apron             |
0-------------------0--------------------0-------------------0
| Tie-up in Ring    | Piledriver         | Y                 |
| Tie-up on Apron   | Piledriver         | Y                 |
0-------------------0--------------------0-------------------0

0-------------------0
| Opponent Running  |
0-------------------0--------------------0-------------------0
| Standing          | Time Bomb          | A                 |
|                   | Hooked Clothesline | Y                 |
0-------------------0--------------------0-------------------0

0---------------------0
| Running             |
0---------------------0----------------------0---------------0
| Opponent Standing   | Spear                | A, Y, or X    |
| Opponent on Ground  | Running Splash       | A, Y, or X    |
| Opponent in Corner  | Running Clothesline  | A, Y, or X    |
| Opponent Corner Sit | Shoulder Block       | A, Y, or X    |
| Tree of Woe         | Shoulder Block       | A, Y, or X    |
0---------------------0----------------------0---------------0

0-------------------0--------------------0-------------------0
| Weapon Attack     | Triple Can Hit     | Y                 |
0-------------------0--------------------0-------------------0

0--------------0
| Koko B. Ware |
0--------------0
Height: 5'8"
Weight: 240 lbs.
Hometown: Union City, TN
Crowd Reaction: Loved
Finisher: Bird Buster
 - Tie-Up --> Vertical Suplex --> tap Down on D-pad

0-------------------0
| Entrance          |
0-------------------0---------------------0------------------0
|                   | Point At Ring       | A                |
|                   | Flap Wings          | Y                |
|                   | Slap Hands Left     | X                |
|                   | Slap Hands Right    | B                |
0-------------------0---------------------0------------------0

0-------------------0
| Ready Position    |
0-------------------0--------------------0-------------------0
| Weak Strike       | Shin Kick          | A                 |
| Medium Strike     | Right Jab          | Left or Right + A |
| Strong Strike     | Jumping Spin Kick  | Up or Down + A    |
| Front Standing    | Hip Toss           | Y                 |
|                   | Headbutt           | Left or Right + Y |
|                   | Locked             |                   |
| Behind            | Back Slide         | Y                 |
|                   | Bulldog            | Left or Right + Y |
0-------------------0--------------------0-------------------0

0-------------------0
| Tie-up            |
0-------------------0-------------------------0--------------0
| Vertical Suplex   | Vertical Crusher        | A            |
|                   | Corkscrew Suplex        | Y            |
|                   | Hanging Vertical Suplex | X            |
| Scoop Slam        | Scoop Slam              | A            |
|                   | Seated Driver           | Y            |
| Head Between Legs | Fall Forward Powerbomb  | A            |
|                   | Sit Out Piledriver      | Y            |
|                   | Locked                  |              |
| Belly-to-Belly    | Push Suplex             | A            |
|                   | Northern Lights         | Y            |
|                   | Locked                  |              |
0-------------------0-------------------------0--------------0

0-------------------0
| Grab From Behind  |
0-------------------0------------------------0---------------0
| Gut Wrench        | German Suplex          | A             |
|                   | Victory Roll Pin       | Y             |
| Samoan Drop       | Samoan Drop            | A             |
|                   | Death Valley Driver    | Y             |
| Full Nelson       | Sleeping Neck Break    | A             |
|                   | Dragon Sleeper         | Y             |
0-------------------0------------------------0---------------0

0-------------------0
| Bent Over         |
0-------------------0-----------------------0----------------0
| Front             | Spinning Neck Break   | Y              |
|                   | Guillotine Scissor    | Left/Right +Y  |
| Behind            | Reverse Fireman Carry | Y              |
|                   | Locked                |                |
0-------------------0-----------------------0----------------0

0--------------------0
| Opponent on Ground |
0-------------------00
| On Belly          |
0-------------------0--------------------0-------------------0
| Head              | Seated Chinlock    | Y                 |
| Side              | La Magistral Pin   | Y                 |
| Feet              | Dragon Cross       | Y                 |
0-------------------0--------------------0-------------------0
| On Back           |
0-------------------0---------------------0------------------0
| Choke             | Flip Over Neck Whip | A                |
| Mount             | Two Elbows          | X                |
| Hold Legs         | Boston Crab         | A                |
0-------------------0---------------------0------------------0

0--------------------0
| Opponent in Corner |
0-------------------00-------------------0-------------------0
| Facing In         | Butt Thrust        | Y                 |
|                   | Locked             |                   |
| Facing Out        | Turn Post Slam     | Y                 |
| Sit TB            | Bulldog            | Y                 |
| Sit Corner        | Slingshot          | Y                 |
| Tree of Woe       | Shoulder Thrusts   | Y                 |
0-------------------0--------------------0-------------------0

0----------------------0
| Turnbuckle           |
0----------------------0-----------------0-------------------0
| Opp Dizzy Standing   | Slice           | Any direction + Y |
| Opp Ready Position   | Drop Kick       | Any direction + Y |
| Opp Dizzy Ground     | Moonsault       | Any direction + A |
| Opp Dizzy Out Stand  | Slice           | Any direction + A |
0----------------------0-----------------0-------------------0

0-------------------0
| Apron             |
0-------------------0--------------------0-------------------0
| Tie-up in Ring    | Sunset Flip        | Y                 |
| Tie-up on Apron   | Sunset Flip        | Y                 |
| SB Standing       | Locked             |                   |
| SB Ground         | Locked             |                   |
| SB Floor Stand    | Locked             |                   |
| SB Floor Ground   | Locked             |                   |
| Standing Plancha  | Top Rope Plancha   | A                 |
0-------------------0--------------------0-------------------0

0-------------------0
| Opponent Running  |
0-------------------0--------------------0-------------------0
| Standing          | Drop Kick          | A                 |
|                   | Locked             |                   |
0-------------------0--------------------0-------------------0

0---------------------0
| Running             |
0---------------------0----------------------0---------------0
| Opponent Standing   | Running Crossbody    | A, Y, or X    |
| Opponent on Ground  | Running Senton       | A, Y, or X    |
| Opponent in Corner  | Flying Butt          | A, Y, or X    |
| Opponent Corner Sit | Running Drop Kick    | A, Y, or X    |
| Opponent Outside    | Senton Plancha       | A             |
| Tree of Woe         | Running Drop Kick    | A, Y, or X    |
0---------------------0----------------------0---------------0

0-------------------0--------------------0-------------------0
| Weapon Attack     | Double Chair Shot  | Y                 |
0-------------------0--------------------0-------------------0

0--------------0
| One Man Gang |
0--------------0
Height: 6'10"
Weight: 350 lbs.
Hometown: Chicago, Illinois
Crowd Reaction: Hated
Finisher: 747 Splash
 - Opponent Ground Dizzy --> Running --> Tap down on D-pad

0-------------------0
| Entrance          |
0-------------------0---------------------0------------------0
|                   | Threaten Crowd      | A                |
|                   | One Fist Up         | Y                |
|                   | Walk One Fist Up    | X                |
|                   | Stop and Taunt Fans | B                |
0-------------------0---------------------0------------------0

0-------------------0
| Ready Position    |
0-------------------0--------------------0-------------------0
| Weak Strike       | Punch to Head      | A                 |
| Medium Strike     | Big Left Punch     | Left or Right + A |
| Strong Strike     | Tornado Punch      | Up or Down + A    |
| Front Standing    | Gorilla Press Slam | Y                 |
|                   | Fireman's Carry    | Left or Right + Y |
|                   | Stinger            | Up or Down + Y    |
| Behind            | DDT Slam           | Y                 |
|                   | Reverse Suplex     | Left or Right + Y |
0-------------------0--------------------0-------------------0

0-------------------0
| Tie-up            |
0-------------------0-------------------------0--------------0
| Vertical Suplex   | Hanging Brainbuster     | A            |
|                   | Rolling Suplex          | Y            |
|                   | Locked                  |              |
| Scoop Slam        | Seated Driver           | A            |
|                   | Twirl Forward Slam      | Y            |
|                   | Locked                  |              |
| Head Between Legs | Underhook Piledriver    | A            |
|                   | Elevated Powerbomb      | Y            |
|                   | Locked                  |              |
| Belly-to-Belly    | Spinning Belly-to-Belly | A            |
|                   | Head Arm Suplex         | Y            |
|                   | Locked                  |              |
0-------------------0-------------------------0--------------0

0-------------------0
| Grab From Behind  |
0-------------------0----------------------0-----------------0
| Gut Wrench        | Electric Chair       | A               |
|                   | Belly-Back Powerbomb | Y               |
|                   | Locked               |                 |
| Samoan Drop       | Mummy Driver         | A               |
|                   | Samoan Powerbomb     | Y               |
|                   | Locked               |                 |
| Full Nelson       | Full Nelson Slam     | A               |
|                   | Katahajime Plex      | Y               |
0-------------------0----------------------0-----------------0

0-------------------0
| Bent Over         |
0-------------------0-------------------------0--------------0
| Front             | Butterfly Suplex        | Y            |
|                   | Forward Face Buster     | Left/Right+Y |
| Behind            | Pumphandle Powerslam    | Y            |
|                   | Rack                    | Left/Right+Y |
0-------------------0-------------------------0--------------0

0--------------------0
| Opponent on Ground |
0-------------------00
| On Belly          |
0-------------------0--------------------0-------------------0
| Head              | Crossface Punches  | Y                 |
| Side              | Bow and Arrow      | Y                 |
| Feet              | Dragon Cross       | Y                 |
0-------------------0--------------------0-------------------0
| On Back           |
0-------------------0--------------------0-------------------0
| Choke             | Surfboard Stretch  | A                 |
|                   | Blatant Choke      | Y                 |
|                   | Locked             |                   |
| Mount             | Head Shot Combo    | X                 |
|                   | Two Elbows         | Y                 |
| Hold Legs         | Ankle Stretch      | A                 |
|                   | Kick to Groin      | Y                 |
|                   | Locked             |                   |
0-------------------0--------------------0-------------------0

0--------------------0
| Opponent in Corner |
0-------------------00-------------------------0-------------0
| Facing In         | Punch Combo              | Y           |
|                   | Choke With Boot          | L or R + Y  |
| Facing Out        | Choke                    | Y           |
| Sit TB            | Belly-to-Belly Superplex | Y           |
| Sit Corner        | Stand on Chest           | Y           |
| Tree of Woe       | Elbow to Nuts            | Y           |
0-------------------0--------------------------0-------------0

0-------------------0
| Apron             |
0-------------------0--------------------0-------------------0
| Tie-up in Ring    | Choke Slam         | Y                 |
| Tie-up on Apron   | Choke Slam         | Y                 |
0-------------------0--------------------0-------------------0

0-------------------0
| Opponent Running  |
0-------------------0--------------------0-------------------0
| Standing          | Flapjack           | A                 |
|                   | Tilt-A-Whirl       | Y                 |
0-------------------0--------------------0-------------------0

0---------------------0
| Running             |
0---------------------0------------------0-------------------0
| Opponent Standing   | Clothesline      | A, Y, or X        |
| Opponent on Ground  | Knee Drop        | A, Y, or X        |
| Opponent in Corner  | Avalanche        | A, Y, or X        |
| Opponent Corner Sit | Shoulder Block   | A, Y, or X        |
| Tree of Woe         | Shoulder Block   | A, Y, or X        |
0---------------------0------------------0-------------------0

0-------------------0--------------------0-------------------0
| Weapon Attack     | Triple Can Hit     | Y                 |
0-------------------0--------------------0-------------------0

0-----------------------------0
| Greg "the Hammer" Valentine |
0-----------------------------0
Height: 6'0"
Weight: 255 lbs.
Hometown: Seattle, Washington
Crowd Reaction: Hated
Finisher: Figure Four
 - Opponent Ground Dizzy - go to feet and pick up with Y, then tap Down on
the D-pad

0-------------------0
| Entrance          |
0-------------------0---------------------0------------------0
|                   | Stop and Taunt Fans | A                |
|                   | Two Fists Up        | Y                |
|                   | Walk One Fist Up    | X                |
|                   | Look at Fans        | B                |
0-------------------0---------------------0------------------0

0-------------------0
| Ready Position    |
0-------------------0--------------------0-------------------0
| Weak Strike       | Front Kick to Gut  | A                 |
| Medium Strike     | Chop               | Left or Right + A |
| Strong Strike     | Big Left Punch     | Up or Down + A    |
| Front Standing    | Inverted Stinger   | Y                 |
|                   | Neck Breaker       | Left or Right + Y |
|                   | Small Package      | Up or Down + Y    |
| Behind            | Low Blow           | Y                 |
|                   | DDT Slam           | Left or Right + Y |
0-------------------0--------------------0-------------------0

0-------------------0
| Tie-up            |
0-------------------0-------------------------0--------------0
| Vertical Suplex   | Vertical Chestbreaker   | A            |
|                   | Fisherman Buster        | Y            |
| Scoop Slam        | Fall Forward Scoop      | A            |
|                   | Power Driver            | Y            |
| Head Between Legs | Powerbomb               | A            |
|                   | Fall Back Piledriver    | Y            |
| Belly-to-Belly    | Spinning Belly-to-Belly | A            |
|                   | Locked                  |              |
0-------------------0-------------------------0--------------0

0-------------------0
| Grab From Behind  |
0-------------------0----------------------0-----------------0
| Gut Wrench        | Fall Back            | A               |
|                   | Belly-Back Suplex    | Y               |
| Samoan Drop       | Samoan Powerbomb     | A               |
|                   | Locked               |                 |
| Full Nelson       | Sleeper Submission   | A               |
|                   | Dragon Suplex        | Y               |
0-------------------0----------------------0-----------------0

0-------------------0
| Bent Over         |
0-------------------0--------------------0-------------------0
| Front             | Impact DDT         | Y                 |
|                   | Guillotine Scissor | Left or Right + Y |
| Behind            | Octopus Hold       | Y                 |
|                   | Locked             |                   |
0-------------------0--------------------0-------------------0

0--------------------0
| Opponent on Ground |
0-------------------00
| On Belly          |
0-------------------0--------------------0-------------------0
| Head              | Seated Chinlock    | Y                 |
| Side              | LaMagistral Pin    | Y                 |
| Feet              | Ankle Lock         | Y                 |
0-------------------0--------------------0-------------------0
| On Back           |
0-------------------0--------------------0-------------------0
| Choke             | Surfboard Stretch  | A                 |
|                   | Blatant Choke      | Y                 |
|                   | Locked             |                   |
| Mount             | Two Elbows         | X                 |
|                   | Locked             |                   |
| Hold Legs         | Fist to Groin      | A                 |
|                   | Headbutt to Groin  | Y                 |
|                   | Single Leg Crab    | X                 |
0-------------------0--------------------0-------------------0

0--------------------0
| Opponent in Corner |
0-------------------00-------------------------0-------------0
| Facing In         | Diamond Dust             | Y           |
|                   | Locked                   |             |
| Facing Out        | Turn Post Slam           | Y           |
| Sit TB            | Superplex                | Y           |
| Sit Corner        | Slingshot                | Y           |
| Tree of Woe       | Elbow to Nuts            | Y           |
0-------------------0--------------------------0-------------0

0----------------------0
| Turnbuckle           |
0----------------------0-------------------0-----------------0
| Opp Dizzy Standing   | Jumping Lariat    | Any direction+A |
| Opp Ready Position   | Double Axe Handle | Any direction+A |
| Opp Dizzy Ground     | Second Rope Elbow | Any direction+A |
| Opp Dizzy Out Stand  | Double Axe Handle | Any direction+A |
| Opp Dizzy Out Ground | Leg Drop          | Any direction+A |
0----------------------0-------------------0-----------------0

0-------------------0
| Apron             |
0-------------------0--------------------0-------------------0
| Tie-up in Ring    | Bring In Hard Way  | Y                 |
| Tie-up on Apron   | Bring Out Hard Way | Y                 |
| SB Floor Stand    | Locked             |                   |
| SB Floor Ground   | Locked             |                   |
0-------------------0--------------------0-------------------0

0-------------------0
| Opponent Running  |
0-------------------0--------------------0-------------------0
| Standing          | Hooked Clothesline | A                 |
|                   | Locked             |                   |
0-------------------0--------------------0-------------------0

0---------------------0
| Running             |
0---------------------0--------------------0-----------------0
| Opponent Standing   | Running Crossbody  | A, Y, or X      |
| Opponent on Ground  | Running Elbow Drop | A, Y, or X      |
| Opponent in Corner  | Back Elbow         | A, Y, or X      |
| Opponent Corner Sit | Shoulder Block     | A, Y, or X      |
| Tree of Woe         | Shoulder Block     | A, Y, or X      |
0---------------------0--------------------0-----------------0

0-------------------0--------------------0-------------------0
| Weapon Attack     | Triple Can Hit     | Y                 |
0-------------------0--------------------0-------------------0

0-------------0
| Harley Race |
0-------------0
Height: 6'1"
Weight: 270 lbs.
Hometown: Kansas City, Kansas
Crowd Reaction: Hated
Finisher: Cradle Suplex
 - Tie-Up --> Vertical Suplex --> tap Down on D-pad

0-------------------0
| Entrance          |
0-------------------0---------------------0------------------0
|                   | Stop and Taunt Fans | A                |
|                   | Threaten Crowd      | Y                |
|                   | Walk One Fist Up    | X                |
|                   | Point at Ring       | B                |
0-------------------0---------------------0------------------0

0-------------------0
| Ready Position    |
0-------------------0--------------------0-------------------0
| Weak Strike       | Right Jab          | A                 |
| Medium Strike     | Lean in Uppercut   | Left or Right + A |
| Strong Strike     | Big Punch to Head  | Up or Down + A    |
| Front Standing    | Fireman's Carry    | Y                 |
|                   | Stinger            | Left or Right + Y |
|                   | Headbutt           | Up or Down + Y    |
| Behind            | Atomic Drop        | Y                 |
|                   | Cobra Slam         | Left or Right + Y |
|                   | Locked             |                   |
0-------------------0--------------------0-------------------0

0-------------------0
| Tie-up            |
0-------------------0-------------------------0--------------0
| Vertical Suplex   | Vertical Suplex         | A            |
|                   | Front Suplex            | Y            |
| Scoop Slam        | Scoop Slam              | A            |
|                   | Fall Forward Scoop      | Y            |
| Head Between Legs | Powerbomb               | A            |
|                   | Fall Back Piledriver    | Y            |
| Belly-to-Belly    | Bear Hug Slam           | A            |
|                   | Locked                  |              |
0-------------------0-------------------------0--------------0

0-------------------0
| Grab From Behind  |
0-------------------0----------------------0-----------------0
| Gut Wrench        | Belly-Back Suplex    | A               |
|                   | German Suplex        | Y               |
| Samoan Drop       | Leaping Ace Crusher  | A               |
|                   | Locked               |                 |
| Full Nelson       | Sleeper Submission   | A               |
|                   | Full Nelson Slam     | Y               |
|                   | Locked               |                 |
0-------------------0----------------------0-----------------0

0-------------------0
| Bent Over         |
0-------------------0-------------------------0--------------0
| Front             | Rocker Dropper          | Y            |
|                   | Double Arm DDT          | Left/Right+Y |
|                   | Locked                  |              |
| Behind            | Back Breaker            | Y            |
|                   | Cobra Twist             | Left/Right+Y |
0-------------------0-------------------------0--------------0

0--------------------0
| Opponent on Ground |
0-------------------00
| On Belly          |
0-------------------0--------------------0-------------------0
| Head              | Diving Headbutt    | Y                 |
| Side              | Bow and Arrow      | Y                 |
| Feet              | Dragon Cross       | Y                 |
0-------------------0--------------------0-------------------0
| On Back           |
0-------------------0--------------------0-------------------0
| Choke             | Blatant Choke      | A                 |
|                   | Straight Jacket    | Y                 |
|                   | Locked             |                   |
| Mount             | Choke Punch        | X                 |
|                   | Two Elbows         | Y                 |
| Hold Legs         | Fist to Groin      | A                 |
|                   | Kick to Groin      | Y                 |
|                   | Spinning Toe Hold  | X                 |
0-------------------0--------------------0-------------------0

0--------------------0
| Opponent in Corner |
0-------------------00-------------------------0-------------0
| Facing In         | Lean In Choke            | Y           |
|                   | Climb TB and Pummel      | L or R + Y  |
| Facing Out        | Choke                    | Y           |
| Sit TB            | Bulldog                  | Y           |
| Sit Corner        | Stand on Chest           | Y           |
| Tree of Woe       | Stand on Nuts            | Y           |
0-------------------0--------------------------0-------------0

0----------------------0
| Turnbuckle           |
0----------------------0-------------------0-----------------0
| Opp Dizzy Standing   | Locked            |                 |
| Opp Ready Position   | Double Axe Handle | Any direction+A |
| Opp Dizzy Ground     | Locked            |                 |
| Opp Dizzy Out Stand  | Locked            |                 |
| Opp Dizzy Out Ground | Locked            |                 |
0----------------------0-------------------0-----------------0

0-------------------0
| Apron             |
0-------------------0--------------------0-------------------0
| Tie-up in Ring    | Choke Slam         | Y                 |
| Tie-up on Apron   | Choke Slam         | Y                 |
0-------------------0--------------------0-------------------0

0-------------------0
| Opponent Running  |
0-------------------0--------------------0-------------------0
| Standing          | Knee to Face       | A                 |
|                   | Spine Buster       | Y                 |
0-------------------0--------------------0-------------------0

0---------------------0
| Running             |
0---------------------0----------------------0---------------0
| Opponent Standing   | Vertical Body Splash | A, Y, or X    |
| Opponent on Ground  | Fist Drop            | A, Y, or X    |
| Opponent in Corner  | Running Clothesline  | A, Y, or X    |
| Opponent Corner Sit | Shoulder Block       | A, Y, or X    |
| Tree of Woe         | Shoulder Block       | A, Y, or X    |
0---------------------0----------------------0---------------0

0-------------------0--------------------0-------------------0
| Weapon Attack     | Double Chair Shot  | Y                 |
0-------------------0--------------------0-------------------0

0--------------0
| Dynamite Kid |
0--------------0
Height: 5'9"
Weight: 225 lbs.
Hometown: Manchester, England
Crowd Reaction: Loved
Finisher: Flying Headbutt
 - Opponent Ground Dizzy --> stand by turnbuckle and tap Down on D-pad

0-------------------0
| Entrance          |
0-------------------0---------------------0------------------0
|                   | Basic Wave          | A                |
|                   | Look at Fans        | Y                |
|                   | Pump Two Hands      | X                |
|                   | Hand on Hips        | B                |
0-------------------0---------------------0------------------0

0-------------------0
| Ready Position    |
0-------------------0--------------------0-------------------0
| Weak Strike       | Calf Kick          | A                 |
| Medium Strike     | Lean-In Uppercut   | Left or Right + A |
| Strong Strike     | Drop Kick          | Up or Down + A    |
| Front Standing    | Headbutt           | Y                 |
|                   | Sit Out Choke Slam | Left or Right + Y |
|                   | Locked             |                   |
| Behind            | Layout Reverse DDT | Y                 |
|                   | Bulldog            | Left or Right + Y |
0-------------------0--------------------0-------------------0

0-------------------0
| Tie-up            |
0-------------------0-------------------------0--------------0
| Vertical Suplex   | Snap Suplex             | A            |
| Scoop Slam        | Power Driver            | A            |
| Head Between Legs | Sit Out Powerbomb       | A            |
|                   | Sit Out Piledriver      | Y            |
| Belly-to-Belly    | Neck Drop               | A            |
|                   | Overhead Belly-to-Belly | Y            |
0-------------------0-------------------------0--------------0

0-------------------0
| Grab From Behind  |
0-------------------0---------------------0------------------0
| Gut Wrench        | German Suplex       | A                |
|                   | Victory Roll Pin    | Y                |
| Samoan Drop       | Face Drop           | A                |
|                   | Leaping Ace Crusher | Y                |
| Full Nelson       | Full Nelson Sit Out | A                |
|                   | Dragon Sleeper      | Y                |
0-------------------0---------------------0------------------0

0-------------------0
| Bent Over         |
0-------------------0--------------------0-------------------0
| Front             | Spinning DDT       | Y                 |
|                   | Double Arm DDT     | Left or Right + Y |
| Behind            | Rev Firemans Carry | Y                 |
0-------------------0--------------------0-------------------0

0--------------------0
| Opponent on Ground |
0-------------------00
| On Belly          |
0-------------------0--------------------0-------------------0
| Head              | Diving Headbutt    | Y                 |
| Side              | Bow and Arrow      | Y                 |
| Feet              | Surfboard          | Y                 |
0-------------------0--------------------0-------------------0
| On Back           |
0-------------------0---------------------0------------------0
| Choke             | Scissored Arm Bar   | A                |
|                   | Flip Over Neck Whip | Y                |
| Mount             | Head Shot Combo     | X                |
|                   | Locked              |                  |
| Hold Legs         | Boston Crab         | A                |
|                   | Single Leg Crab     | Y                |
|                   | Locked              |                  |
0-------------------0---------------------0------------------0

0--------------------0
| Opponent in Corner |
0-------------------00-------------------0-------------------0
| Facing In         | Running Powerslam  | Y                 |
|                   | Locked             |                   |
| Facing Out        | Neckbreaker        | Y                 |
| Sit TB            | Superplex          | Y                 |
| Sit Corner        | Slingshot          | Y                 |
| Tree of Woe       | Punch Combo        | Y                 |
0-------------------0--------------------0-------------------0

0----------------------0
| Turnbuckle           |
0----------------------0-------------------0-----------------0
| Opp Dizzy Standing   | Shoulder Block    | Any direction+A |
| Opp Ready Position   | Missile Drop Kick | Any direction+A |
|                      | Locked            |                 |
| Opp Dizzy Ground     | Leg Drop          | Any direction+A |
| Opp Dizzy Out Stand  | Locked            |                 |
| Opp Dizzy Out Ground | Locked            |                 |
0----------------------0-------------------0-----------------0

0-------------------0
| Apron             |
0-------------------0--------------------0-------------------0
| Tie-up in Ring    | Sunset Flip        | Y                 |
| Tie-up on Apron   | Sunset Flip        | Y                 |
| SB Standing       | SB Drop Kick       | Y                 |
| SB Ground         | SB Leg Drop        | Y                 |
| SB Floor Stand    | Locked             |                   |
| SB Floor Ground   | Locked             |                   |
| Standing Plancha  | Top Rope Senton    | A                 |
0-------------------0--------------------0-------------------0

0-------------------0
| Opponent Running  |
0-------------------0--------------------0-------------------0
| Standing          | Spine Buster       | A                 |
|                   | Locked             |                   |
0-------------------0--------------------0-------------------0

0---------------------0
| Running             |
0---------------------0---------------------0----------------0
| Opponent Standing   | Clothesline         | A, Y, or X     |
| Opponent on Ground  | Running Stomp       | A, Y, or X     |
| Opponent in Corner  | Back Elbow          | A, Y, or X     |
| Opponent Corner Sit | Running Drop Kick   | A, Y, or X     |
| Opponent Outside    | Senton Plancha      | A              |
| Tree of Woe         | Running Drop Kick   | A, Y, or X     |
0---------------------0---------------------0----------------0

0-------------------0--------------------0-------------------0
| Weapon Attack     | Duck Cane Swing    | Y                 |
0-------------------0--------------------0-------------------0

0--------------0
| Ricky Morton |
0--------------0
Height: 5'11"
Weight: 215 lbs.
Hometown: Nashville, Tennessee
Crowd Reaction: Loved
Finisher: Crossbody
 - Opponent Standing Dizzy --> stand by turnbuckle and tap Down on D-pad
Manager 1: Gibson

0-------------------0
| Entrance          |
0-------------------0---------------------0------------------0
|                   | Basic Wave          | A                |
|                   | Double Howdy        | Y                |
|                   | Slap Hands Left     | X                |
|                   | Pump One Hand       | B                |
0-------------------0---------------------0------------------0

0-------------------0
| Ready Position    |
0-------------------0--------------------0-------------------0
| Weak Strike       | Shin Kick          | A                 |
| Medium Strike     | Side Roundhouse    | Left or Right + A |
| Strong Strike     | Super Kick         | Up or Down + A    |
| Front Standing    | Fireman's Carry    | Y                 |
|                   | Stinger            | Left or Right + Y |
|                   | Locked             |                   |
| Behind            | Abstretch          | Y                 |
|                   | Bulldog            | Left or Right + Y |
0-------------------0--------------------0-------------------0

0-------------------0
| Tie-up            |
0-------------------0-------------------------0--------------0
| Vertical Suplex   | Corkscrew Suplex        | A            |
|                   | Locked                  |              |
| Scoop Slam        | Fall Forward Scoop      | A            |
|                   | Locked                  |              |
| Head Between Legs | Fall Back Piledriver    | A            |
| Belly-to-Belly    | Spinning Belly-to-Belly | A            |
0-------------------0-------------------------0--------------0

0-------------------0
| Grab From Behind  |
0-------------------0----------------------0-----------------0
| Gut Wrench        | Belly-Back Powerbomb | A               |
|                   | Locked               |                 |
| Samoan Drop       | Fireman Toss         | A               |
| Full Nelson       | Front Russian Sweep  | A               |
|                   | Locked               |                 |
0-------------------0----------------------0-----------------0

0-------------------0
| Bent Over         |
0-------------------0--------------------0-------------------0
| Front             | Kamikaze           | Y                 |
|                   | Double Arm DDT     | Left or Right + Y |
| Behind            | Bulldog            | Y                 |
|                   | Locked             |                   |
0-------------------0--------------------0-------------------0

0--------------------0
| Opponent on Ground |
0-------------------00
| On Belly          |
0-------------------0--------------------0-------------------0
| Head              | Diving Headbutt    | Y                 |
| Side              | Crossface          | Y                 |
| Feet              | Surfboard          | Y                 |
0-------------------0--------------------0-------------------0
| On Back           |
0-------------------0---------------------0------------------0
| Choke             | Claw                | A                |
| Mount             | Head Shot Combo     | X                |
| Hold Legs         | Texas Cloverleaf    | A                |
0-------------------0---------------------0------------------0

0--------------------0
| Opponent in Corner |
0-------------------00-------------------0-------------------0
| Facing In         | Tornado DDT        | Y                 |
|                   | Locked             |                   |
| Facing Out        | Neckbreaker        | Y                 |
| Sit TB            | Bulldog            | Y                 |
| Sit Corner        | Drop Kick to Nuts  | Y                 |
| Tree of Woe       | Shoulder Thrusts   | Y                 |
0-------------------0--------------------0-------------------0

0----------------------0
| Turnbuckle           |
0----------------------0---------------------0---------------0
| Opp Dizzy Standing   | Hurricanrana        | Any dir + A   |
|                      | Spinning Wheel Kick | Any dir + Y   |
| Opp Ready Position   | Jumping Lariat      | Any dir + A   |
|                      | Drop Kick           | Any dir + Y   |
|                      | Locked              |               |
| Opp Dizzy Ground     | Splash              | Any dir + A   |
|                      | Leaping Elbow       | Any dir + Y   |
| Opp Dizzy Out Stand  | Missile Drop Kick   | Any dir + A   |
| Opp Dizzy Out Ground | Splash              | Any dir + A   |
0----------------------0---------------------0---------------0

0-------------------0
| Apron             |
0-------------------0--------------------0-------------------0
| Tie-up in Ring    | Sunset Flip        | Y                 |
| Tie-up on Apron   | Sunset Flip        | Y                 |
| SB Standing       | SB Drop Kick       | Y                 |
| SB Ground         | Flip Over Senton   | Y                 |
| SB Floor Stand    | Crossbody          | Y                 |
| SB Floor Ground   | Falling Back Elbow | Y                 |
| Standing Plancha  | Standing Plancha   | A                 |
|                   | Locked             |                   |
0-------------------0--------------------0-------------------0

0-------------------0
| Opponent Running  |
0-------------------0--------------------0-------------------0
| Standing          | Tilt-A-Whirl Slam  | A                 |
0-------------------0--------------------0-------------------0

0---------------------0
| Running             |
0---------------------0---------------------0----------------0
| Opponent Standing   | Wrap Around DDT     | A, Y, or X     |
| Opponent on Ground  | Running Stomp       | A, Y, or X     |
| Opponent in Corner  | Angled Splash       | A, Y, or X     |
| Opponent Corner Sit | Bronco Buster       | A, Y, or X     |
| Opponent Outside    | Clear Plancha       | A              |
|                     | Locked              |                |
| Tree of Woe         | Shoulder Block      | A, Y, or X     |
0---------------------0---------------------0----------------0

0-------------------0--------------------0-------------------0
| Weapon Attack     | Double Chair Shot  | Y                 |
0-------------------0--------------------0-------------------0

0---------------0
| Robert Gibson |
0---------------0
Height: 6'0"
Weight: 230 lbs.
Hometown: Pensacola, Florida
Crowd Reaction: Loved
Finisher: Drop Kick
 - Opponent Ground Dizzy --> stand by turnbuckle and tap Down on D-pad
Manager 1: Morton

0-------------------0
| Entrance          |
0-------------------0---------------------0------------------0
|                   | Double Howdy        | A                |
|                   | Basic Wave          | Y                |
|                   | Pump One Hand       | X                |
|                   | Pump Two Hands      | B                |
0-------------------0---------------------0------------------0

0-------------------0
| Ready Position    |
0-------------------0--------------------0-------------------0
| Weak Strike       | Punch to Head      | A                 |
| Medium Strike     | Drop Kick          | Left or Right + A |
| Strong Strike     | Side Roundhose     | Up or Down + A    |
| Front Standing    | Hip Toss           | Y                 |
|                   | Inverted Stinger   | Left or Right + Y |
|                   | Locked             |                   |
| Behind            | Atomic Drop        | Y                 |
|                   | Locked             |                   |
0-------------------0--------------------0-------------------0

0-------------------0
| Tie-up            |
0-------------------0-------------------------0--------------0
| Vertical Suplex   | Snap Suplex             | A            |
|                   | Locked                  |              |
| Scoop Slam        | Fall Forward Slam       | A            |
| Head Between Legs | Sit Out Powerbomb       | A            |
| Belly-to-Belly    | Belly-to-Belly Suplex   | A            |
0-------------------0-------------------------0--------------0

0-------------------0
| Grab From Behind  |
0-------------------0---------------------0------------------0
| Gut Wrench        | Victory Roll Pin    | A                |
|                   | Locked              |                  |
| Samoan Drop       | Samoan Drop         | A                |
| Full Nelson       | Sleeper Submission  | A                |
|                   | Locked              |                  |
0-------------------0---------------------0------------------0

0-------------------0
| Bent Over         |
0-------------------0--------------------0-------------------0
| Front             | Impact DDT         | Y                 |
|                   | Spinning DDT       | Left or Right + Y |
| Behind            | Octopus Hold       | Y                 |
|                   | Cobra Twist        | Left or Right + Y |
0-------------------0--------------------0-------------------0

0--------------------0
| Opponent on Ground |
0-------------------00
| On Belly          |
0-------------------0--------------------0-------------------0
| Head              | Crossface Punches  | Y                 |
| Side              | Crossface          | Y                 |
| Feet              | STF Submission     | Y                 |
0-------------------0--------------------0-------------------0
| On Back           |
0-------------------0----------------------0-----------------0
| Choke             | Flip Over Neck Whip  | A               |
|                   | Locked               |                 |
| Mount             | American Figure Four | X               |
| Hold Legs         | Ankle Stretch        | A               |
0-------------------0----------------------0-----------------0

0--------------------0
| Opponent in Corner |
0-------------------00-------------------0-------------------0
| Facing In         | Kick Combo         | Y                 |
|                   | Locked             |                   |
| Facing Out        | Turn Post Slam     | Y                 |
| Sit TB            | Bulldog            | Y                 |
| Sit Corner        | Slingshot          | Y                 |
| Tree of Woe       | Punch Combo        | Y                 |
0-------------------0--------------------0-------------------0

0----------------------0
| Turnbuckle           |
0----------------------0-------------------0-----------------0
| Opp Dizzy Standing   | Crossbody         | Any direction+A |
|                      | Hurricanrana      | Any direction+Y |
| Opp Ready Position   | Double Axe Handle | Any direction+A |
|                      | Jumping Lariat    | Any direction+Y |
|                      | Locked            |                 |
| Opp Dizzy Ground     | Splash            | Any direction+A |
|                      | Kamikaze Headbutt | Any direction+Y |
| Opp Dizzy Out Stand  | Crossbody         | Any direction+A |
| Opp Dizzy Out Ground | Splash            | Any direction+A |
0----------------------0-------------------0-----------------0

0-------------------0
| Apron             |
0-------------------0--------------------0-------------------0
| Tie-up in Ring    | Bring in Hard Way  | Y                 |
| Tie-up on Apron   | Sunset Flip        | Y                 |
| SB Standing       | SB Drop Kick       | Y                 |
| SB Ground         | SB Leg Drop        | Y                 |
| SB Floor Stand    | SB Drop Kick       | Y                 |
| SB Floor Ground   | Leaping Elbow      | Y                 |
| Standing Plancha  | Standing Plancha   | A                 |
|                   | Locked             |                   |
0-------------------0--------------------0-------------------0

0-------------------0
| Opponent Running  |
0-------------------0--------------------0-------------------0
| Standing          | Drop Kick          | A                 |
0-------------------0--------------------0-------------------0

0---------------------0
| Running             |
0---------------------0---------------------0----------------0
| Opponent Standing   | Sunset Flip         | A, Y, or X     |
| Opponent on Ground  | Rolling Senton      | A, Y, or X     |
| Opponent in Corner  | Back Elbow          | A, Y, or X     |
| Opponent Corner Sit | Running Drop Kick   | A, Y, or X     |
| Opponent Outside    | Clear Plancha       | A              |
|                     | Locked              |                |
| Tree of Woe         | Running Drop Kick   | A, Y, or X     |
0---------------------0---------------------0----------------0

0-------------------0--------------------0-------------------0
| Weapon Attack     | Double Chair       | Y                 |
0-------------------0--------------------0-------------------0

0------------------------0
| "Flyin'" Brian Pillman |
0------------------------0
Height: 6'0"
Weight: 225 lbs.
Hometown: Cincinnati, Ohio
Crowd Reaction: Loved
Finisher: Air Pillman
 - Apron --> SB Standing --> tap Down on D-pad

0-------------------0
| Entrance          |
0-------------------0---------------------0------------------0
|                   | Two Fists Up        | A                |
|                   | Arms Out            | Y                |
|                   | Slap Hands Left     | X                |
|                   | Slap Hands Right    | B                |
0-------------------0---------------------0------------------0

0-------------------0
| Ready Position    |
0-------------------0--------------------0-------------------0
| Weak Strike       | Chop               | A                 |
| Medium Strike     | Side Roundhouse    | Left or Right + A |
| Strong Strike     | Super Kick         | Up or Down + A    |
| Front Standing    | Reverse Leg Sweep  | Y                 |
|                   | Stinger            | Left or Right + Y |
|                   | Locked             |                   |
| Behind            | Layout Reverse DDT | Y                 |
|                   | Locked             |                   |
0-------------------0--------------------0-------------------0

0-------------------0
| Tie-up            |
0-------------------0-------------------------0--------------0
| Vertical Suplex   | Seated Front Suplex     | A            |
|                   | Locked                  |              |
| Scoop Slam        | Side Neck Buster        | A            |
| Head Between Legs | Cradle Piledriver       | A            |
| Belly-to-Belly    | Inverted Piledriver     | A            |
0-------------------0-------------------------0--------------0

0-------------------0
| Grab From Behind  |
0-------------------0---------------------0------------------0
| Gut Wrench        | Victory Roll Pin    | A                |
|                   | Locked              |                  |
| Samoan Drop       | Fireman Toss        | A                |
| Full Nelson       | Crossface Wing      | A                |
|                   | Locked              |                  |
0-------------------0---------------------0------------------0

0-------------------0
| Bent Over         |
0-------------------0--------------------0-------------------0
| Front             | Facebuster         | Y                 |
|                   | Spinning DDT       | Left or Right + Y |
| Behind            | Bulldog            | Y                 |
|                   | Rev Firemans Carry | Left or Right + Y |
0-------------------0--------------------0-------------------0

0--------------------0
| Opponent on Ground |
0-------------------00
| On Belly          |
0-------------------0--------------------0-------------------0
| Head              | Drop Kick to Face  | Y                 |
| Side              | La Magistral Pin   | Y                 |
| Feet              | STF Submission     | Y                 |
0-------------------0--------------------0-------------------0
| On Back           |
0-------------------0----------------------0-----------------0
| Choke             | Drop Kick to Head    | A               |
| Mount             | American Figure Four | X               |
| Hold Legs         | Single Leg Crab      | A               |
|                   | Locked               |                 |
0-------------------0----------------------0-----------------0

0--------------------0
| Opponent in Corner |
0-------------------00-------------------0-------------------0
| Facing In         | Tornado Crusher    | Y                 |
|                   | Locked             |                   |
| Facing Out        | Rake Eyes          | Y                 |
| Sit TB            | Hurricanrana       | Y                 |
| Sit Corner        | Drop Kick to Nuts  | Y                 |
| Tree of Woe       | Stand on Nuts      | Y                 |
0-------------------0--------------------0-------------------0

0----------------------0
| Turnbuckle           |
0----------------------0---------------------0---------------0
| Opp Dizzy Standing   | Hurricanrana        | Any dir + A   |
| Opp Ready Position   | Missile Drop Kick   | Any dir + A   |
|                      | Spinning Wheel Kick | Any dir + Y   |
|                      | Locked              |               |
| Opp Dizzy Ground     | Reverse Splash      | Any dir + A   |
|                      | Shooting Star Press | Any dir + Y   |
| Opp Dizzy Out Stand  | Crossbody           | Any dir + A   |
| Opp Dizzy Out Ground | Leaping Elbow       | Any dir + A   |
0----------------------0---------------------0---------------0

0-------------------0
| Apron             |
0-------------------0--------------------0-------------------0
| Tie-up in Ring    | Sunset Flip        | Y                 |
| Tie-up on Apron   | Sunset Flip        | Y                 |
| SB Standing       | SB Drop Kick       | Y                 |
| SB Ground         | Flip Over Senton   | Y                 |
| SB Floor Stand    | SB Clothesline     | Y                 |
| SB Floor Ground   | Asai Moonsault     | Y                 |
| Standing Plancha  | Top Rope Plancha   | A                 |
|                   | Locked             |                   |
0-------------------0--------------------0-------------------0

0-------------------0
| Opponent Running  |
0-------------------0--------------------0-------------------0
| Standing          | Time Bomb          | A                 |
0-------------------0--------------------0-------------------0

0---------------------0
| Running             |
0---------------------0---------------------0----------------0
| Opponent Standing   | Sunset Flip         | A, Y, or X     |
| Opponent on Ground  | Running Senton      | A, Y, or X     |
| Opponent in Corner  | Monkey Flip         | A, Y, or X     |
| Opponent Corner Sit | Bronco Buster       | A, Y, or X     |
| Opponent Outside    | Clear Plancha       | A              |
|                     | Locked              |                |
| Tree of Woe         | Running Drop Kick   | A, Y, or X     |
0---------------------0---------------------0----------------0

0-------------------0--------------------0-------------------0
| Weapon Attack     | Double Chair Shot  | Y                 |
0-------------------0--------------------0-------------------0

0--------------------------0
| "Superstar" Billy Graham |
0--------------------------0
Height: 6'4"
Weight: 275 lbs.
Hometown: Manchester, England
Crowd Reaction: Hated
Finisher: Bear Hug
 - Tie-up --> Belly-to-Belly --> tap Down on D-pad

0-------------------0
| Entrance          |
0-------------------0---------------------0------------------0
|                   | Stop and Taunt Fans | A                |
|                   | Flex Up             | Y                |
|                   | Flex One Up         | X                |
|                   | Threaten Crowd      | B                |
0-------------------0---------------------0------------------0

0-------------------0
| Ready Position    |
0-------------------0--------------------0-------------------0
| Weak Strike       | Chop               | A                 |
| Medium Strike     | Big Left Punch     | Left or Right + A |
| Strong Strike     | Tornado Punch      | Up or Down + A    |
| Front Standing    | Gorilla Press Slam | Y                 |
|                   | One Hand Chokeslam | Left or Right + Y |
|                   | One Arm Slam       | Up or Down + Y    |
| Behind            | DDT Slam           | Y                 |
|                   | Reverse Suplex     | Left or Right + Y |
0-------------------0--------------------0-------------------0

0-------------------0
| Tie-up            |
0-------------------0-------------------------0--------------0
| Vertical Suplex   | Fisherman Buster        | A            |
|                   | Fisherman Suplex        | Y            |
|                   | Hanging Vertical Suplex | X            |
|                   | Locked                  |              |
| Scoop Slam        | Power Driver            | A            |
|                   | Fall Away Slam          | Y            |
|                   | Twirl Forward Slam      | X            |
|                   | Locked                  |              |
| Head Between Legs | Hooked Facebuster       | A            |
|                   | Cradle Piledriver       | Y            |
|                   | Underhook Piledriver    | X            |
|                   | Locked                  |              |
| Belly-to-Belly    | Fly Swatter             | A            |
|                   | Overhead Belly-to-Belly | Y            |
|                   | Inverted Piledriver     | X            |
|                   | Locked                  |              |
0-------------------0-------------------------0--------------0

0-------------------0
| Grab From Behind  |
0-------------------0------------------------0---------------0
| Gut Wrench        | Belly-Back Slam        | A             |
|                   | Reverse Powerbomb Plex | Y             |
|                   | Locked                 |               |
| Samoan Drop       | Chest Breaker          | A             |
|                   | Mummy Driver           | Y             |
|                   | Locked                 |               |
| Full Nelson       | Full Nelson Slam       | A             |
|                   | Doujimi Submission     | Y             |
|                   | Locked                 |               |
0-------------------0------------------------0---------------0

0-------------------0
| Bent Over         |
0-------------------0---------------------0------------------0
| Front             | Gutwrench Powerbomb | Y                |
|                   | Forward Face Buster | Left or Right+ Y |
| Behind            | Rack                | Y                |
0-------------------0---------------------0------------------0

0--------------------0
| Opponent on Ground |
0-------------------00
| On Belly          |
0-------------------0--------------------0-------------------0
| Head              | Straight Jacket    | Y                 |
| Side              | Crossface          | Y                 |
| Feet              | Ankle Lock         | Y                 |
0-------------------0--------------------0-------------------0
| On Back           |
0-------------------0---------------------0------------------0
| Choke             | Blatant Choke       | A                |
|                   | Surfboard Stretch   | Y                |
| Mount             | Choke Punch         | X                |
|                   | Locked              |                  |
| Hold Legs         | Kick to Groin       | A                |
|                   | Locked              |                  |
0-------------------0---------------------0------------------0

0--------------------0
| Opponent in Corner |
0-------------------00--------------------------0------------0
| Facing In         | Choke with Boot           | Y          |
|                   | Climb TB and Pummel       |            |
| Facing Out        | Splash Mountain Powerbomb | Y          |
| Sit TB            | Belly-to-Belly Superplex  | Y          |
| Sit Corner        | Stand on Chest            | Y          |
| Tree of Woe       | Punch Combo               | Y          |
0-------------------0---------------------------0------------0

0-------------------0
| Apron             |
0-------------------0--------------------0-------------------0
| Tie-up in Ring    | Choke Slam         | Y                 |
| Tie-up on Apron   | Choke Slam         | Y                 |
0-------------------0--------------------0-------------------0

0-------------------0
| Opponent Running  |
0-------------------0--------------------0-------------------0
| Standing          | Hooked Clothesline | A                 |
|                   | Locked             |                   |
0-------------------0--------------------0-------------------0

0---------------------0
| Running             |
0---------------------0---------------------0----------------0
| Opponent Standing   | Spear               | A, Y, or X     |
| Opponent on Ground  | Running Elbow Drop  | A, Y, or X     |
| Opponent in Corner  | Angled Splash       | A, Y, or X     |
| Opponent Corner Sit | Shoulder Block      | A, Y, or X     |
| Tree of Woe         | Shoulder Block      | A, Y, or X     |
0---------------------0---------------------0----------------0

0-------------------0--------------------0-------------------0
| Weapon Attack     | Triple Can Hit     | Y                 |
0-------------------0--------------------0-------------------0

0---------------------------0
| "Hot Stuff" Eddie Gilbert |
0---------------------------0
Height: 5'10"
Weight: 220 lbs.
Hometown: Lexington, Tennessee
Crowd Reaction: Hated
Finisher: Figure Four
 - Opponent on Back --> Hold Legs --> tap Down on D-pad

0-------------------0
| Entrance          |
0-------------------0---------------------0------------------0
|                   | Threaten Crowd      | A                |
|                   | Arms Out            | Y                |
|                   | Flex Up             | X                |
|                   | Stop and Taunt Fans | B                |
0-------------------0---------------------0------------------0

0-------------------0
| Ready Position    |
0-------------------0--------------------0-------------------0
| Weak Strike       | Chop               | A                 |
| Medium Strike     | Open Palm Strike   | Left or Right + A |
| Strong Strike     | Super Kick         | Up or Down + A    |
| Front Standing    | Headbutt           | Y                 |
|                   | Small Package      | Left or Right + Y |
|                   | Locked             |                   |
| Behind            | Low Blow           | Y                 |
|                   | Abstretch          | Left or Right + Y |
0-------------------0--------------------0-------------------0

0-------------------0
| Tie-up            |
0-------------------0-------------------------0--------------0
| Vertical Suplex   | Snap Suplex             | A            |
|                   | Fisherman Buster        | Y            |
| Scoop Slam        | Scoop Slam              | A            |
|                   | Shoulder Breaker        | Y            |
| Head Between Legs | Sit Out Piledriver      | A            |
|                   | Locked                  |              |
| Belly-to-Belly    | Belly-to-Belly Suplex   | A            |
|                   | Locked                  |              |
0-------------------0-------------------------0--------------0

0-------------------0
| Grab From Behind  |
0-------------------0---------------------0------------------0
| Gut Wrench        | High Angle Back     | A                |
|                   | Locked              |                  |
| Samoan Drop       | Samoan Drop         | A                |
|                   | Locked              |                  |
| Full Nelson       | Head Arm Choke      | A                |
|                   | Locked              |                  |
0-------------------0---------------------0------------------0

0-------------------0
| Bent Over         |
0-------------------0--------------------0-------------------0
| Front             | Impact DDT         | Y                 |
|                   | Rocker Dropper     | Left or Right + Y |
| Behind            | Stretch Plum       | Y                 |
|                   | Bulldog            | Left or Right + Y |
0-------------------0--------------------0-------------------0

0--------------------0
| Opponent on Ground |
0-------------------00
| On Belly          |
0-------------------0--------------------0-------------------0
| Head              | Diving Headbutt    | Y                 |
| Side              | Oklahoma Roll      | Y                 |
| Feet              | Ankle Lock         | Y                 |
0-------------------0--------------------0-------------------0
| On Back           |
0-------------------0---------------------0------------------0
| Choke             | Flip Over Neck Whip | A                |
|                   | Locked              |                  |
| Mount             | Choke Punch         | Y                |
| Hold Legs         | Fist to Groin       | A                |
|                   | Locked              |                  |
0-------------------0---------------------0------------------0

0--------------------0
| Opponent in Corner |
0-------------------00-------------------0-------------------0
| Facing In         | Big Double Chop    | Y                 |
|                   | Lean In Choke      | Left or Right + Y |
| Facing Out        | Choke              | Y                 |
| Sit TB            | Bulldog            | Y                 |
| Sit Corner        | Slingshot          | Y                 |
| Tree of Woe       | Stand on Nuts      | Y                 |
0-------------------0--------------------0-------------------0

0----------------------0
| Turnbuckle           |
0----------------------0-------------------0-----------------0
| Opp Dizzy Standing   | DDT               | Any direction+A |
| Opp Ready Position   | Shoulder Block    | Any direction+A |
| Opp Dizzy Ground     | Reverse Splash    | Any direction+A |
| Opp Dizzy Out Stand  | Double Axe Handle | Any direction+A |
| Opp Dizzy Out Ground | Leg Drop          | Any direction+A |
0----------------------0-------------------0-----------------0

0-------------------0
| Apron             |
0-------------------0--------------------0-------------------0
| Tie-up in Ring    | Bring in Hard Way  | Y                 |
| Tie-up on Apron   | Bring Out Hard Way | Y                 |
| SB Standing       | SB Drop Kick       | Y                 |
| SB Ground         | SB Splash          | Y                 |
| SB Floor Stand    | Locked             |                   |
| SB Floor Ground   | Locked             |                   |
| Standing Plancha  | Top Rope Plancha   | A                 |
0-------------------0--------------------0-------------------0

0-------------------0
| Opponent Running  |
0-------------------0--------------------0-------------------0
| Standing          | Fujiwara Arm Bar   | A                 |
|                   | Spine Buster       | Y                 |
0-------------------0--------------------0-------------------0

0---------------------0
| Running             |
0---------------------0---------------------0----------------0
| Opponent Standing   | Wrap Around DDT     | A, Y, or X     |
| Opponent on Ground  | Front Elbow Drop    | A, Y, or X     |
| Opponent in Corner  | Running Clothesline | A, Y, or X     |
| Opponent Corner Sit | Shoulder Block      | A, Y, or X     |
| Opponent Outside    | Clear Plancha       | A              |
| Tree of Woe         | Shoulder Block      | A, Y, or X     |
0---------------------0---------------------0----------------0

0-------------------0--------------------0-------------------0
| Weapon Attack     | Duck Cane Swing    | Y                 |
0-------------------0--------------------0-------------------0

0-------------0
| Rick Martel |
0-------------0
Height: 5'11"
Weight: 235 lbs.
Hometown: Montreal, Canada
Crowd Reaction: Loved
Finisher: Boston Crab
 - Opponent Ground Dizzy --> Hold Legs --> tap Down on D-pad

0-------------------0
| Entrance          |
0-------------------0--------------------0-------------------0
|                   | Basic wave         | A                 |
|                   | Arm Flex Wave      | Y                 |
|                   | Slap Hands Left    | X                 |
|                   | Arms Out           | B                 |
0-------------------0--------------------0-------------------0

0-------------------0
| Ready Position    |
0-------------------0--------------------0-------------------0
| Weak Strike       | Punch to Head      | A                 |
| Medium Strike     | Lean in Uppercut   | Left or Right + A |
| Strong Strike     | Big Left Punch     | Up or Down + A    |
| Front Standing    | Hip Toss           | Y                 |
|                   | Inverted Stinger   | Left or Right + Y |
|                   | Locked             |                   |
| Behind            | Abstretch          | Y                 |
|                   | Cobra Slam         | Left or Right + Y |
0-------------------0--------------------0-------------------0

0-------------------0
| Tie-up            |
0-------------------0-------------------------0--------------0
| Vertical Suplex   | Snap Suplex             | A            |
|                   | Seated Front Suplex     | Y            |
| Scoop Slam        | Shoulder Breaker        | A            |
| Head Between Legs | Sit Out Piledriver      | A            |
|                   | Sit Out Powerbomb       | Y            |
| Belly-to-Belly    | Northern Lights         | A            |
0-------------------0-------------------------0--------------0

0-------------------0
| Grab From Behind  |
0-------------------0----------------------0-----------------0
| Gut Wrench        | German Suplex        | A               |
|                   | Belly-Back Suplex   | Y               |
| Samoan Drop       | Samoan Powerbomb     | A               |
|                   | Falling Reverse DDT  | Y               |
| Full Nelson       | Sleeper Submission   | A               |
|                   | Reverse Facebuster   | Y               |
0-------------------0----------------------0-----------------0

0-------------------0
| Bent Over         |
0-------------------0--------------------0-------------------0
| Front             | DDT                | Y                 |
|                   | Kamikaze           | Left or Right + Y |
| Behind            | Bulldog            | Y                 |
0-------------------0--------------------0-------------------0

0--------------------0
| Opponent on Ground |
0-------------------00
| On Belly          |
0-------------------0--------------------0-------------------0
| Head              | Straight Jacket    | Y                 |
| Side              | Crossface          | Y                 |
| Feet              | Surfboard          | Y                 |
0-------------------0--------------------0-------------------0
| On Back           |
0-------------------0--------------------0-------------------0
| Choke             | Blatant Choke      | A                 |
|                   | Straight Jacket    | Y                 |
| Mount             | Head Shot Combo    | X                 |
|                   | Locked             |                   |
| Hold Legs         | Fist to Groin      | A                 |
|                   | Kick to Groin      | Y                 |
|                   | Locked             |                   |
0-------------------0--------------------0-------------------0

0--------------------0
| Opponent in Corner |
0-------------------00-------------------0-------------------0
| Facing In         | Lean In Choke      | Y                 |
|                   | Diamond Dust       | Left or Right + Y |
| Facing Out        | Choke              | Y                 |
| Sit TB            | Press Slam         | Y                 |
| Sit Corner        | Stand on Chest     | Y                 |
| Tree of Woe       | Elbow to Nuts      | Y                 |
0-------------------0--------------------0-------------------0

0----------------------0
| Turnbuckle           |
0----------------------0-------------------0-----------------0
| Opp Dizzy Standing   | Missile Drop Kick | Any direction+A |
| Opp Ready Position   | Double Axe Handle | Any direction+A |
|                      | Locked            |                 |
| Opp Dizzy Ground     | Reverse Splash    | Any direction+A |
| Opp Dizzy Out Stand  | Locked            |                 |
| Opp Dizzy out Ground | Locked            |                 |
0----------------------0-------------------0-----------------0

0-------------------0
| Apron             |
0-------------------0--------------------0-------------------0
| Tie-up in Ring    | Sunset Flip        | Y                 |
| Tie-up on Apron   | Sunset Flip        | Y                 |
| SB Standing       | Locked             |                   |
| SB Ground         | Locked             |                   |
| SB Floor Stand    | Locked             |                   |
| SB Floor Ground   | Locked             |                   |
| Standing Plancha  | Top Rope Senton    | A                 |
0-------------------0--------------------0-------------------0

0-------------------0
| Opponent Running  |
0-------------------0--------------------0-------------------0
| Standing          | Drop Kick          | A                 |
|                   | Tilt-A-Whirl Slam  | Y                 |
0-------------------0--------------------0-------------------0

0---------------------0
| Running             |
0---------------------0------------------0-------------------0
| Opponent Standing   | Flying Forearm   | A, Y, or X        |
| Opponent on Ground  | Running Senton   | A, Y, or X        |
| Opponent in Corner  | Back Elbow       | A, Y, or X        |
| Opponent Corner Sit | Shoulder Block   | A, Y, or X        |
| Opponent Outside    | Senton Plancha   | A                 |
| Tree of Woe         | Shoulder Block   | A, Y, or X        |
0---------------------0------------------0-------------------0

0-------------------0--------------------0-------------------0
| Weapon Attack     | Double Chair Shot  | Y                 |
0-------------------0--------------------0-------------------0

0-------------0
| Ivan Koloff |
0-------------0
Height: 6'0"
Weight: 300 lbs.
Hometown: Moscow, Russia
Crowd Reaction: Hated
Finisher: Inverted Back Breaker
 - Opponent Bent Over --> Front --> tap Down on D-pad

0-------------------0
| Entrance          |
0-------------------0---------------------0------------------0
|                   | Stop and Taunt Fans | A                |
|                   | Threaten Crowd      | Y                |
|                   | Two Fists Up        | X                |
|                   | Point at Ring       | B                |
0-------------------0---------------------0------------------0

0-------------------0
| Ready Position    |
0-------------------0--------------------0-------------------0
| Weak Strike       | Double Fist Punch  | A                 |
| Medium Strike     | Lean in Uppercut   | Left or Right + A |
| Strong Strike     | Big Punch to Head  | Up or Down + A    |
| Front Standing    | Neck Breaker       | Y                 |
|                   | Sidewalk Slam      | Left or Right + Y |
|                   | Locked             |                   |
| Behind            | Side Slam          | Y                 |
|                   | Reverse Suplex     | Left or Right + Y |
0-------------------0--------------------0-------------------0

0-------------------0
| Tie-up            |
0-------------------0-------------------------0--------------0
| Vertical Suplex   | Hanging Brainbuster     | A            |
|                   | Fisherman Suplex        | Y            |
|                   | Fisherman Buster        | X            |
|                   | Locked                  |              |
| Scoop Slam        | Side Neck Buster        | A            |
|                   | Power Driver            | Y            |
|                   | Locked                  |              |
| Head Between Legs | Fall Back Piledriver    | A            |
|                   | Sit Out Piledriver      | Y            |
|                   | Locked                  |              |
| Belly-to-Belly    | Push Suplex             | A            |
|                   | Bear Hug Slam           | Y            |
|                   | Fly Swatter             | X            |
0-------------------0-------------------------0--------------0

0-------------------0
| Grab From Behind  |
0-------------------0----------------------0-----------------0
| Gut Wrench        | German Suplex        | A               |
|                   | High Angle Back      | Y               |
|                   | Locked               |                 |
| Samoan Drop       | Samoan Powerbomb     | A               |
|                   | Twirling Samoan      | Y               |
| Full Nelson       | Sleeping Neck Break  | A               |
|                   | Russian Leg Sweep    | Y               |
0-------------------0----------------------0-----------------0

0-------------------0
| Bent Over         |
0-------------------0--------------------0-------------------0
| Front             | Gutwrench Suplex   | Y                 |
|                   | Kamikaze           | Left or Right + Y |
|                   | Locked             |                   |
| Behind            | Back Breaker       | Y                 |
|                   | Cobra Twist        | Left or Right + Y |
0-------------------0--------------------0-------------------0

0--------------------0
| Opponent on Ground |
0-------------------00
| On Belly          |
0-------------------0--------------------0-------------------0
| Head              | Seated Chinlock    | Y                 |
| Side              | Bow and Arrow      | Y                 |
| Feet              | Surfboard          | Y                 |
0-------------------0--------------------0-------------------0
| On Back           |
0-------------------0--------------------0-------------------0
| Choke             | Blatant Choke      | A                 |
|                   | Rear Chinlock      | Y                 |
| Mount             | Head Shot Combo    | X                 |
|                   | Choke Punch        | Y                 |
| Hold Legs         | Fist to Groin      | A                 |
|                   | Kick to Groin      | Y                 |
|                   | Locked             |                   |
0-------------------0--------------------0-------------------0

0--------------------0
| Opponent in Corner |
0-------------------00-------------------0-------------------0
| Facing In         | Punch Combo        | Y                 |
|                   | Locked             |                   |
| Facing Out        | Neckbreaker        | Y                 |
| Sit TB            | Superplex          | Y                 |
| Sit Corner        | Slingshot          | Y                 |
| Tree of Woe       | Punch Combo        | Y                 |
0-------------------0--------------------0-------------------0

0----------------------0
| Turnbuckle           |
0----------------------0-------------------0-----------------0
| Opp Ready Position   | Double Axe Handle | Any direction+A |
0----------------------0-------------------0-----------------0

0-------------------0
| Apron             |
0-------------------0--------------------0-------------------0
| Tie-up in Ring    | Choke Slam         | Y                 |
| Tie-up on Apron   | Choke Slam         | Y                 |
0-------------------0--------------------0-------------------0

0-------------------0
| Opponent Running  |
0-------------------0--------------------0-------------------0
| Standing          | Hooked Clothesline | A                 |
|                   | Locked             |                   |
0-------------------0--------------------0-------------------0

0---------------------0
| Running             |
0---------------------0---------------------0----------------0
| Opponent Standing   | Clothesline         | A, Y, or X     |
| Opponent on Ground  | Knee Drop           | A, Y, or X     |
| Opponent in Corner  | Running Clothesline | A, Y, or X     |
| Opponent Corner Sit | Shoulder Block      | A, Y, or X     |
| Tree of Woe         | Shoulder Block      | A, Y, or X     |
0---------------------0---------------------0----------------0

0-------------------0--------------------0-------------------0
| Weapon Attack     | Double Chair Shot  | Y                 |
0-------------------0--------------------0-------------------0

0-------------0
| Ivan Putski |
0-------------0
Height: 5'10"
Weight: 245 lbs.
Hometown: Krakow, Poland
Crowd Reaction: Loved
Finisher: Polish Hammer
 - Running --> Opponent Standing --> tap Down on D-pad

0-------------------0
| Entrance          |
0-------------------0--------------------0-------------------0
|                   | Flex Up            | A                 |
|                   | Flex One Up        | Y                 |
|                   | Slap Hands Left    | X                 |
|                   | Slap Hands Right   | B                 |
0-------------------0--------------------0-------------------0

0-------------------0
| Ready Position    |
0-------------------0--------------------0-------------------0
| Weak Strike       | Gut Shot           | A                 |
| Medium Strike     | Right Jab          | Left or Right + A |
| Strong Strike     | Big Left Punch     | Up or Down + A    |
| Front Standing    | Gorilla Press Slam | Y                 |
|                   | Divine Hammer      | Left or Right + Y |
|                   | Sidewalk Slam      | Up or Down + Y    |
| Behind            | Side Slam          | Y                 |
|                   | Locked             |                   |
0-------------------0--------------------0-------------------0

0-------------------0
| Tie-up            |
0-------------------0-------------------------0--------------0
| Vertical Suplex   | Hanging Powerslam       | A            |
|                   | Hanging Vertical Suplex | Y            |
|                   | Locked                  |              |
| Scoop Slam        | Twirl Forward Slam      | A            |
|                   | Shoulder Breaker        | Y            |
|                   | Locked                  |              |
| Head Between Legs | Elevated Powerbomb      | A            |
|                   | Cradle Poledriver       | Y            |
|                   | Sit Out Powerbomb       | X            |
|                   | Locked                  |              |
| Belly-to-Belly    | Bear Hug                | A            |
|                   | Fly Swatter             | Y            |
|                   | Locked                  |              |
0-------------------0-------------------------0--------------0

0-------------------0
| Grab From Behind  |
0-------------------0----------------------0-----------------0
| Gut Wrench        | Release German       | A               |
|                   | Electric Chair       | Y               |
|                   | Locked               |                 |
| Samoan Drop       | Mummy Driver         | A               |
|                   | Chest Breaker        | Y               |
|                   | Locked               |                 |
| Full Nelson       | Full Nelson Slam     | A               |
|                   | Full Nelson Sit Out  | Y               |
|                   | Locked               |                 |
0-------------------0----------------------0-----------------0

0-------------------0
| Bent Over         |
0-------------------0--------------------0-------------------0
| Front             | Forward Facebuster | Y                 |
|                   | Butterfly Suplex   | Left or Right + Y |
| Behind            | Back Breaker       | Y                 |
|                   | Rack               | Left or Right + Y |
0-------------------0--------------------0-------------------0

0--------------------0
| Opponent on Ground |
0-------------------00
| On Belly          |
0-------------------0--------------------0-------------------0
| Head              | Crossface Punches  | Y                 |
| Side              | Oklahoma Roll      | Y                 |
| Feet              | Dragon Cross       | Y                 |
0-------------------0--------------------0-------------------0
| On Back           |
0-------------------0--------------------0-------------------0
| Choke             | Rear Chinlock      | A                 |
|                   | Spinal Tap         | Y                 |
|                   | Locked             |                   |
| Mount             | Head Shot Combo    | X                 |
|                   | Locked             |                   |
| Hold Legs         | Fist to Groin      | A                 |
|                   | Boston Crab        | Y                 |
|                   | Locked             |                   |
0-------------------0--------------------0-------------------0

0--------------------0
| Opponent in Corner |
0-------------------00--------------------------0------------0
| Facing In         | Climb TB and Pummel       | Y          |
|                   | Running Powerslam         | L or R + Y |
| Facing Out        | Splash Mountain Powerbomb | Y          |
| Sit TB            | Press Slam                | Y          |
| Sit Corner        | Corner Powerbomb          | Y          |
| Tree of Woe       | Punch Combo               | Y          |
0-------------------0---------------------------0------------0

0-------------------0
| Apron             |
0-------------------0--------------------0-------------------0
| Tie-up in Ring    | Choke Slam         | Y                 |
| Tie-up on Apron   | Choke Slam         | Y                 |
0-------------------0--------------------0-------------------0

0-------------------0
| Opponent Running  |
0-------------------0--------------------0-------------------0
| Standing          | Power Slam         | A                 |
|                   | Spine Buster       | Y                 |
0-------------------0--------------------0-------------------0

0---------------------0
| Running             |
0---------------------0---------------------0----------------0
| Opponent Standing   | Shoulder Tackle     | A, Y, or X     |
| Opponent on Ground  | Knee Drop           | A, Y, or X     |
| Opponent in Corner  | Running Clothesline | A, Y, or X     |
| Opponent Corner Sit | Shoulder Block      | A, Y, or X     |
| Tree of Woe         | Shoulder Block      | A, Y, or X     |
0---------------------0---------------------0----------------0

0-------------------0--------------------0-------------------0
| Weapon Attack     | Duck Cane Swing    | Y                 |
0-------------------0--------------------0-------------------0

0--------------------0
| "Cowboy" Bob Orton |
0--------------------0
Height: 6'3"
Weight: 270 lbs.
Hometown: Kansas City, Missouri
Crowd Reaction: Loved
Finisher: Superplex
 - Opponent in Corner --> Facing In --> tap Down on D-pad

0-------------------0
| Entrance          |
0-------------------0---------------------0------------------0
|                   | Stop and Taunt Fans | A                |
|                   | Arm Flex Wave       | Y                |
|                   | Walk One Fist Up    | X                |
|                   | Threaten Crowd      | B                |
0-------------------0---------------------0------------------0

0-------------------0
| Ready Position    |
0-------------------0--------------------0-------------------0
| Weak Strike       | Calf Kick          | A                 |
| Medium Strike     | Chop               | Left or Right + A |
| Strong Strike     | Big Left Punch     | Up or Down + A    |
| Front Standing    | Enziguri           | Y                 |
|                   | Small Package      | Left or Right + Y |
|                   | Locked             |                   |
| Behind            | Abstretch          | Y                 |
|                   | Reverse DDT        | Left or Right + Y |
0-------------------0--------------------0-------------------0

0-------------------0
| Tie-up            |
0-------------------0-------------------------0--------------0
| Vertical Suplex   | Front Suplex            | A            |
|                   | Seated Front Suplex     | Y            |
| Scoop Slam        | Scoop Slam              | A            |
|                   | Shoulder Breaker        | Y            |
| Head Between Legs | Sit Out Piledriver      | A            |
|                   | Fall Forward Powerbomb  | Y            |
|                   | Locked                  |              |
| Belly-to-Belly    | Northern Lights         | A            |
|                   | Locked                  |              |
0-------------------0-------------------------0--------------0

0-------------------0
| Grab From Behind  |
0-------------------0----------------------0-----------------0
| Gut Wrench        | High Angle Back      | A               |
|                   | German Suplex        | Y               |
|                   | Locked               |                 |
| Samoan Drop       | Fireman Toss         | A               |
|                   | Locked               |                 |
| Full Nelson       | Sleeping Neck Break  | A               |
|                   | Russian Leg Sweep    | Y               |
|                   | Locked               |                 |
0-------------------0----------------------0-----------------0

0-------------------0
| Bent Over         |
0-------------------0--------------------0-------------------0
| Front             | Swingding Sitout   | Y                 |
|                   | Impact DDT         | Left or Right + Y |
| Behind            | Bulldog            | Y                 |
|                   | Cobra Twist        | Left or Right + Y |
0-------------------0--------------------0-------------------0

0--------------------0
| Opponent on Ground |
0-------------------00
| On Belly          |
0-------------------0--------------------0-------------------0
| Head              | Straight Jacket    | Y                 |
| Side              | La Magistral Pin   | Y                 |
| Feet              | STF Submission     | Y                 |
0-------------------0--------------------0-------------------0
| On Back           |
0-------------------0---------------------0------------------0
| Choke             | Scissored Arm Bar   | A                |
|                   | Flip Over Neck Whip | Y                |
| Mount             | Head Shot Combo     | X                |
|                   | Fuji Arm Bar        | Y                |
| Hold Legs         | Figure Four         | A                |
|                   | Fist to Groin       | Y                |
|                   | Texas Clover Leaf   | X                |
0-------------------0---------------------0------------------0

0--------------------0
| Opponent in Corner |
0-------------------00-------------------0-------------------0
| Facing In         | Big Double Chop    | Y                 |
|                   | Lean In Choke      | Left or Right + Y |
| Facing Out        | Turn Post Slam     | Y                 |
| Sit TB            | Bulldog            | Y                 |
| Sit Corner        | Slingshot          | Y                 |
| Tree of Woe       | Stand on Nuts      | Y                 |
0-------------------0--------------------0-------------------0

0----------------------0
| Turnbuckle           |
0----------------------0-------------------0-----------------0
| Opp Ready Position   | Shoulder Block    | Any direction+A |
|                      | Locked            |                 |
| Opp Dizzy Ground     | Leaping Elbow     | Any direction+A |
| Opp Dizzy out Ground | Locked            |                 |
0----------------------0-------------------0-----------------0

0-------------------0
| Apron             |
0-------------------0--------------------0-------------------0
| Tie-up in Ring    | Bring In Hard Way  | Y                 |
| Tie-up on Apron   | Bring Out Hard Way | Y                 |
| Standing Plancha  | Locked             | A                 |
0-------------------0--------------------0-------------------0

0-------------------0
| Opponent Running  |
0-------------------0--------------------0-------------------0
| Standing          | Drop Toe Hold      | A                 |
|                   | Fujiwara Arm Bar   | Y                 |
0-------------------0--------------------0-------------------0

0---------------------0
| Running             |
0---------------------0-------------------0------------------0
| Opponent Standing   | Flying Back Elbow | A, Y, or X       |
| Opponent on Ground  | Knee Drop         | A, Y, or X       |
| Opponent in Corner  | Back Elbow        | A, Y, or X       |
| Opponent Corner Sit | Running Drop Kick | A, Y, or X       |
| Tree of Woe         | Running Drop Kick | A, Y, or X       |
0---------------------0-------------------0------------------0

0-------------------0--------------------0-------------------0
| Weapon Attack     | Duck Cane Swing    | Y                 |
0-------------------0--------------------0-------------------0

0-----------0
| The Sheik |
0-----------0
Height: 6'0"
Weight: 250 lbs.
Hometown: The Syrian Desert
Crowd Reaction: Hated
Finisher: Camel Clutch
 - Opponent Dizzy Ground --> Back --> Head --> tap Down on D-pad
Manager 1: Sabu

0-------------------0
| Entrance          |
0-------------------0---------------------0------------------0
|                   | Point Up            | A                |
|                   | Threaten Crowd      | Y                |
|                   | Stop and Taunt Fans | X                |
|                   | Point at Ring       | B                |
0-------------------0---------------------0------------------0

0-------------------0
| Ready Position    |
0-------------------0--------------------0-------------------0
| Weak Strike       | Gut Shot           | A                 |
| Medium Strike     | Chop               | Left or Right + A |
| Strong Strike     | Big Punch to Head  | Up or Down + A    |
| Front Standing    | Sidewalk Slam      | Y                 |
|                   | Hip Toss           | Left or Right + Y |
|                   | Locked             |                   |
| Behind            | Atomic Drop        | Y                 |
|                   | Low Blow           | Left or Right + Y |
0-------------------0--------------------0-------------------0

0-------------------0
| Tie-up            |
0-------------------0-------------------------0--------------0
| Vertical Suplex   | Hanging Vertical Suplex | A            |
|                   | Hanging Powerslam       | Y            |
| Scoop Slam        | Fall Forward Scoop      | A            |
|                   | Fall Forward Slam       | Y            |
| Head Between Legs | Fall Back Piledriver    | A            |
|                   | Locked                  |              |
| Belly-to-Belly    | Inverted Piledriver     | A            |
|                   | Locked                  |              |
0-------------------0-------------------------0--------------0

0-------------------0
| Grab From Behind  |
0-------------------0----------------------0-----------------0
| Gut Wrench        | 360 Belly-to-Back    | A               |
|                   | Locked               |                 |
| Samoan Drop       | Leaping Ace Crusher  | A               |
|                   | Locked               |                 |
| Full Nelson       | Sleepier Submission  | A               |
|                   | Locked               |                 |
0-------------------0----------------------0-----------------0

0-------------------0
| Bent Over         |
0-------------------0--------------------0-------------------0
| Front             | Gutwrench Suplex   | Y                 |
|                   | Impact DDT         | Left or Right + Y |
| Behind            | Cobra Twist        | Y                 |
|                   | Pumphandle Slam    | Left or Right + Y |
0-------------------0--------------------0-------------------0

0--------------------0
| Opponent on Ground |
0-------------------00
| On Belly          |
0-------------------0--------------------0-------------------0
| Head              | Crossface Punches  | Y                 |
| Side              | La Magistral Pin   | Y                 |
| Feet              | Ankle Lock         | Y                 |
0-------------------0--------------------0-------------------0
| On Back           |
0-------------------0---------------------0------------------0
| Choke             | Blatant Choke       | A                |
|                   | Locked              |                  |
| Mount             | Choke Punch         | X                |
| Hold Legs         | Fist to Groin       | A                |
|                   | Locked              |                  |
0-------------------0---------------------0------------------0

0--------------------0
| Opponent in Corner |
0-------------------00-------------------------0-------------0
| Facing In         | Choke With Boot          | Y           |
|                   | Big Double Chop          | L or R + Y  |
| Facing Out        | Rake Eyes                | Y           |
| Sit TB            | Belly-to-Belly Superplex | Y           |
| Sit Corner        | Stand on Chest           | Y           |
| Tree of Woe       | Stand on Nuts            | Y           |
0-------------------0--------------------------0-------------0

0----------------------0
| Turnbuckle           |
0----------------------0-------------------0-----------------0
| Opp Dizzy Stand      | Crossbody         | Any direction+A |
| Opp Ready Position   | Double Axe Handle | Any direction+A |
| Opp Dizzy Ground     | Reverse Splash    | Any direction+A |
| Opp Dizzy out Stand  | Double Axe Handle | Any direction+A |
| Opp Dizzy out Ground | Splash            | Any direction+A |
0----------------------0-------------------0-----------------0

0-------------------0
| Apron             |
0-------------------0--------------------0-------------------0
| Tie-up in Ring    | Bring In Hard Way  | Y                 |
| Tie-up on Apron   | Bring Out Hard Way | Y                 |
| SB Standing       | SB Shoulder Block  | Y                 |
| SB Ground         | Leg Drop           | Y                 |
| SB Floor Stand    | Locked             |                   |
| SB Floor Ground   | Locked             |                   |
| Standing Plancha  | Standing Plancha   | A                 |
0-------------------0--------------------0-------------------0

0-------------------0
| Opponent Running  |
0-------------------0--------------------0-------------------0
| Standing          | Flapjack           | A                 |
|                   | Back Body Drop     | Y                 |
0-------------------0--------------------0-------------------0

0---------------------0
| Running             |
0---------------------0---------------------0----------------0
| Opponent Standing   | Clothesline         | A, Y, or X     |
| Opponent on Ground  | Knee Drop           | A, Y, or X     |
| Opponent in Corner  | Running Clothesline | A, Y, or X     |
| Opponent Corner Sit | Shoulder Block      | A, Y, or X     |
| Opponent Outside    | Running Plancha     | A              |
| Tree of Woe         | Shoulder Block      | A, Y, or X     |
0---------------------0---------------------0----------------0

0-------------------0--------------------0-------------------0
| Weapon Attack     | Triple Can Hit     | Y                 |
0-------------------0--------------------0-------------------0

0-----------------0
| Kerry von Erich |
0-----------------0
Height: 6'2"
Weight: 245 lbs.
Hometown: Denton, Texas
Crowd Reaction: Loved
Finisher: The Claw
 - Ready Position --> tap Down on D-pad
Manager 1: Fritz
Manager 2: Kevin
Manager 3: Michael
Manager 4: David

0-------------------0
| Entrance          |
0-------------------0---------------------0------------------0
|                   | Basic Wave          | A                |
|                   | Arm Flex Wave       | Y                |
|                   | Slap Hands Left     | X                |
|                   | Slap Hands Right    | B                |
0-------------------0---------------------0------------------0

0-------------------0
| Ready Position    |
0-------------------0--------------------0-------------------0
| Weak Strike       | Chop               | A                 |
| Medium Strike     | Drop Kick          | Left or Right + A |
| Strong Strike     | Tornado Punch      | Up or Down + A    |
| Front Standing    | Hip Toss           | Y                 |
|                   | Enziguri           | Left or Right + Y |
|                   | Locked             |                   |
| Behind            | Abstretch          | Y                 |
|                   | Layout Reverse DDT | Left or Right + Y |
0-------------------0--------------------0-------------------0

0-------------------0
| Tie-up            |
0-------------------0-------------------------0--------------0
| Vertical Suplex   | Front Suplex            | A            |
|                   | Snap Suplex             | Y            |
| Scoop Slam        | Scoop Slam              | A            |
|                   | Shoulder Breaker        | Y            |
| Head Between Legs | Fall Back Piledriver    | A            |
|                   | Locked                  |              |
| Belly-to-Belly    | Overhead Belly-to-Belly | A            |
|                   | Locked                  |              |
0-------------------0-------------------------0--------------0

0-------------------0
| Grab From Behind  |
0-------------------0----------------------0-----------------0
| Gut Wrench        | Release German       | A               |
|                   | Locked               |                 |
| Samoan Drop       | Twirling Samoan      | A               |
|                   | Locked               |                 |
| Full Nelson       | Sleeper Submission   | A               |
|                   | Locked               |                 |
0-------------------0----------------------0-----------------0

0-------------------0
| Bent Over         |
0-------------------0--------------------0-------------------0
| Front             | DDT                | Y                 |
|                   | Butterfly Suplex   | Left or Right + Y |
| Behind            | Stretch Plum       | Y                 |
|                   | Bulldog            | Left or Right + Y |
0-------------------0--------------------0-------------------0

0--------------------0
| Opponent on Ground |
0-------------------00
| On Belly          |
0-------------------0--------------------0-------------------0
| Head              | Seated Chinlock    | Y                 |
| Side              | Bow and Arrow      | Y                 |
| Feet              | Romero Chinlock    | Y                 |
0-------------------0--------------------0-------------------0
| On Back           |
0-------------------0----------------------0-----------------0
| Choke             | Dragon Lock          | A               |
|                   | Locked               |                 |
| Mount             | American Figure Four | X               |
| Hold Legs         | Elevated Crab        | A               |
|                   | Locked               |                 |
0-------------------0----------------------0-----------------0

0--------------------0
| Opponent in Corner |
0-------------------00--------------------------0------------0
| Facing In         | SB Crossbody              | Y          |
|                   | Tornado DDT               | L or R + Y |
| Facing Out        | Splash Mountain Powerbomb | Y          |
| Sit TB            | Press Slam                | Y          |
| Sit Corner        | Slingshot                 | Y          |
| Tree of Woe       | Punch Combo               | Y          |
0-------------------0---------------------------0------------0

0----------------------0
| Turnbuckle           |
0----------------------0-------------------0-----------------0
| Opp Dizzy Stand      | Drop Kick         | Any direction+A |
| Opp Ready Position   | Missile Drop Kick | Any direction+A |
| Opp Dizzy Ground     | Splash            | Any direction+A |
| Opp Dizzy out Stand  | Double Axe Handle | Any direction+A |
| Opp Dizzy out Ground | Leaping Elbow     | Any direction+A |
0----------------------0-------------------0-----------------0

0-------------------0
| Apron             |
0-------------------0--------------------0-------------------0
| Tie-up in Ring    | Piledriver         | Y                 |
| Tie-up on Apron   | Piledriver         | Y                 |
| SB Standing       | SB Drop Kick       | Y                 |
| SB Ground         | Leg Drop           | Y                 |
| SB Floor Stand    | Locked             |                   |
| SB Floor Ground   | Locked             |                   |
| Standing Plancha  | Top Rope Moonsault | A                 |
0-------------------0--------------------0-------------------0

0-------------------0
| Opponent Running  |
0-------------------0--------------------0-------------------0
| Standing          | Fujiwara Arm Bar   | A                 |
|                   | Tilt-A-Whirl Slam  | Y                 |
0-------------------0--------------------0-------------------0

0---------------------0
| Running             |
0---------------------0---------------------0----------------0
| Opponent Standing   | Flying Forearm      | A, Y, or X     |
| Opponent on Ground  | Rolling Senton      | A, Y, or X     |
| Opponent in Corner  | Monkey Flip         | A, Y, or X     |
| Opponent Corner Sit | Running Drop Kick   | A, Y, or X     |
| Opponent Outside    | Clear Plancha       | A              |
| Tree of Woe         | Running Drop Kick   | A, Y, or X     |
0---------------------0---------------------0----------------0

0-------------------0--------------------0-------------------0
| Weapon Attack     | Double Chair Shot  | Y                 |
0-------------------0--------------------0-------------------0

0-----------------0
| Fritz von Erich |
0-----------------0
Height: 6'4"
Weight: 260 lbs.
Hometown: Denton, Texas
Crowd Reaction: Loved
Finisher: The Claw
 - Ready Position --> tap Down on D-pad
Manager 1: Kerry
Manager 2: Kevin
Manager 3: Michael
Manager 4: David

0-------------------0
| Entrance          |
0-------------------0---------------------0------------------0
|                   | Basic Wave          | A                |
|                   | Hand on Hips        | Y                |
|                   | Walk One Fist Up    | X                |
|                   | Look at Fans        | B                |
0-------------------0---------------------0------------------0

0-------------------0
| Ready Position    |
0-------------------0---------------------0------------------0
| Weak Strike       | Double Fist Punch   | A                |
| Medium Strike     | Open Palm Strike    | Left or Right +A |
| Strong Strike     | Big Punch to Head   | Up or Down + A   |
| Front Standing    | Falling Neckbreaker | Y                |
|                   | One Hand Choke Slam | Left or Right +Y |
|                   | Locked              |                  |
| Behind            | Side Slam           | Y                |
|                   | Reverse Suplex      | Left or Right +Y |
0-------------------0---------------------0------------------0

0-------------------0
| Tie-up            |
0-------------------0-------------------------0--------------0
| Vertical Suplex   | Front Suplex            | A            |
|                   | Hanging Vertical Suplex | Y            |
|                   | Rolling Suplex          | X            |
|                   | Locked                  |              |
| Scoop Slam        | Power Driver            | A            |
|                   | Twirl Forward Slam      | Y            |
|                   | Seated Driver           | X            |
|                   | Locked                  |              |
| Head Between Legs | Fall Back Piledriver    | A            |
|                   | Fall Forward Powerbomb  | Y            |
|                   | Sit Out Face Buster     | X            |
|                   | Locked                  |              |
| Belly-to-Belly    | Bear Hug Slam           | A            |
|                   | Overhead Belly-to-Belly | Y            |
|                   | Locked                  |              |
0-------------------0-------------------------0--------------0

0-------------------0
| Grab From Behind  |
0-------------------0----------------------0-----------------0
| Gut Wrench        | Fall Back            | A               |
|                   | Rolling German       | Y               |
|                   | Locked               |                 |
| Samoan Drop       | Death Valley Driver  | A               |
|                   | Twirling Samoan      | Y               |
|                   | Locked               |                 |
| Full Nelson       | Katahajime           | A               |
|                   | Front Russian Sweep  | Y               |
0-------------------0----------------------0-----------------0

0-------------------0
| Bent Over         |
0-------------------0----------------------0-----------------0
| Front             | Gutwrench Suplex     | Y               |
|                   | Double Arm DDT       | Left/Right + Y  |
|                   | Locked               |                 |
| Behind            | Rack                 | Y               |
|                   | Pumphandle Powerslam | Left/Right + Y  |
0-------------------0----------------------0-----------------0

0--------------------0
| Opponent on Ground |
0-------------------00
| On Belly          |
0-------------------0--------------------0-------------------0
| Head              | Straight Jacket    | Y                 |
| Side              | Bow and Arrow      | Y                 |
| Feet              | Surfboard          | Y                 |
0-------------------0--------------------0-------------------0
| On Back           |
0-------------------0----------------------0-----------------0
| Choke             | Blatant Choke        | A               |
|                   | Dragon Lock          | Y               |
| Mount             | Head Shot Combo      | X               |
|                   | Fuji Arm Bar         | Y               |
| Hold Legs         | Kick to Groin        | A               |
|                   | Fist to Groin        | Y               |
|                   | Locked               |                 |
0-------------------0----------------------0-----------------0

0--------------------0
| Opponent in Corner |
0-------------------00--------------------------0------------0
| Facing In         | Lean In Choke             | Y          |
|                   | Locked                    |            |
| Facing Out        | Splash Mountain Powerbomb | Y          |
| Sit TB            | Press Slam                | Y          |
| Sit Corner        | Stand on Chest            | Y          |
| Tree of Woe       | Elbow to Nuts             | Y          |
0-------------------0---------------------------0------------0

0-------------------0
| Apron             |
0-------------------0--------------------0-------------------0
| Tie-up in Ring    | Piledriver         | Y                 |
| Tie-up on Apron   | Piledriver         | Y                 |
0-------------------0--------------------0-------------------0

0-------------------0
| Opponent Running  |
0-------------------0--------------------0-------------------0
| Standing          | Spine Buster       | A                 |
|                   | Locked             |                   |
0-------------------0--------------------0-------------------0

0---------------------0
| Running             |
0---------------------0---------------------0----------------0
| Opponent Standing   | Clothesline         | A, Y, or X     |
| Opponent on Ground  | Knee Drop           | A, Y, or X     |
| Opponent in Corner  | Flying Butt         | A, Y, or X     |
| Opponent Corner Sit | Shoulder Block      | A, Y, or X     |
| Tree of Woe         | Shoulder Block      | A, Y, or X     |
0---------------------0---------------------0----------------0

0-------------------0--------------------0-------------------0
| Weapon Attack     | Russian Leg Sweep  | Y                 |
0-------------------0--------------------0-------------------0

0-----------------0
| Kevin von Erich |
0-----------------0
Height: 6'2"
Weight: 245 lbs.
Hometown: Denton, Texas
Crowd Reaction: Loved
Finisher: The Claw
 - Ready Position --> tap Down on D-pad
Manager 1: Kerry
Manager 2: Fritz
Manager 3: Michael
Manager 4: David

0-------------------0
| Entrance          |
0-------------------0---------------------0------------------0
|                   | Double Howdy        | A                |
|                   | Basic Wave          | Y                |
|                   | Walk One Fist Up    | X                |
|                   | Slap Hands Right    | B                |
0-------------------0---------------------0------------------0

0-------------------0
| Ready Position    |
0-------------------0--------------------0-------------------0
| Weak Strike       | Chop               | A                 |
| Medium Strike     | Drop Kick          | Left or Right + A |
| Strong Strike     | Roundhouse Kick    | Up or Down + A    |
| Front Standing    | Small Package      | Y                 |
|                   | Ace Crusher        | Left or Right + Y |
|                   | Locked             |                   |
| Behind            | Reverse Suplex     | Y                 |
|                   | Cobra Slam         | Left or Right + Y |
0-------------------0--------------------0-------------------0

0-------------------0
| Tie-up            |
0-------------------0-------------------------0--------------0
| Vertical Suplex   | Vertical Crusher        | A            |
|                   | Snap Suplex             | Y            |
| Scoop Slam        | Twirl Forward Slam      | A            |
|                   | Shoulder Breaker        | Y            |
| Head Between Legs | Hooked Face Buster      | A            |
|                   | Locked                  |              |
| Belly-to-Belly    | Neck Drop               | A            |
|                   | Locked                  |              |
0-------------------0-------------------------0--------------0

0-------------------0
| Grab From Behind  |
0-------------------0----------------------0-----------------0
| Gut Wrench        | Belly-to-Back Suplex | A               |
|                   | Locked               |                 |
| Samoan Drop       | Leaping Ace Crusher  | A               |
|                   | Locked               |                 |
| Full Nelson       | Sleeper Submission   | A               |
|                   | Locked               |                 |
0-------------------0----------------------0-----------------0

0-------------------0
| Bent Over         |
0-------------------0--------------------0-------------------0
| Front             | Double Arm DDT     | Y                 |
|                   | Kamikaze           | Left or Right + Y |
| Behind            | Octopus Hold       | Y                 |
|                   | Bulldog            | Left or Right + Y |
0-------------------0--------------------0-------------------0

0--------------------0
| Opponent on Ground |
0-------------------00
| On Belly          |
0-------------------0--------------------0-------------------0
| Head              | Seated Chinlock    | Y                 |
| Side              | Bow and Arrow      | Y                 |
| Feet              | Romero Chinlock    | Y                 |
0-------------------0--------------------0-------------------0
| On Back           |
0-------------------0----------------------0-----------------0
| Choke             | Dragon Lock          | A               |
|                   | Locked               |                 |
| Mount             | American Figure Four | X               |
| Hold Legs         | Ankle Stretch        | A               |
|                   | Locked               |                 |
0-------------------0----------------------0-----------------0

0--------------------0
| Opponent in Corner |
0-------------------00--------------------0------------------0
| Facing In         | Climb TB and Pummel | Y                |
|                   | Kick Combo          | Left or Right +Y |
| Facing Out        | Neckbreaker         | Y                |
| Sit TB            | Hurricanrana        | Y                |
| Sit Corner        | Slingshot           | Y                |
| Tree of Woe       | Shoulder Thrusts    | Y                |
0-------------------0---------------------0------------------0

0----------------------0
| Turnbuckle           |
0----------------------0-------------------0-----------------0
| Opp Dizzy Stand      | Drop Kick         | Any direction+A |
| Opp Ready Position   | Missile Drop Kick | Any direction+A |
| Opp Dizzy Ground     | Leaping Elbow     | Any direction+A |
| Opp Dizzy out Stand  | Double Axe Handle | Any direction+A |
| Opp Dizzy out Ground | Leaping Elbow     | Any direction+A |
0----------------------0-------------------0-----------------0

0-------------------0
| Apron             |
0-------------------0--------------------0-------------------0
| Tie-up in Ring    | Piledriver         | Y                 |
| Tie-up on Apron   | Piledriver         | Y                 |
| SB Standing       | SB Wheel Kick      | Y                 |
| SB Ground         | SB Senton          | Y                 |
| SB Floor Stand    | Locked             |                   |
| SB Floor Ground   | Locked             |                   |
| Standing Plancha  | Top Rope Moonsault | A                 |
0-------------------0--------------------0-------------------0

0-------------------0
| Opponent Running  |
0-------------------0--------------------0-------------------0
| Standing          | Fujiwara Arm Bar   | A                 |
|                   | Time Bomb          | Y                 |
0-------------------0--------------------0-------------------0

0---------------------0
| Running             |
0---------------------0---------------------0----------------0
| Opponent Standing   | Wrap Around DDT     | A, Y, or X     |
| Opponent on Ground  | Rolling Senton      | A, Y, or X     |
| Opponent in Corner  | Monkey Flip         | A, Y, or X     |
| Opponent Corner Sit | Running Drop Kick   | A, Y, or X     |
| Opponent Outside    | Clear Plancha       | A              |
| Tree of Woe         | Running Drop Kick   | A, Y, or X     |
0---------------------0---------------------0----------------0

0-------------------0--------------------0-------------------0
| Weapon Attack     | Double Chair Shot  | Y                 |
0-------------------0--------------------0-------------------0

0-------------------0
| Michael von Erich |
0-------------------0
Height: 5'11"
Weight: 210 lbs.
Hometown: Denton, Texas
Crowd Reaction: Loved
Finisher: The Claw
 - Ready Position --> tap Down on D-pad
Manager 1: Kerry
Manager 2: Fritz
Manager 3: Kevin
Manager 4: David

0-------------------0
| Entrance          |
0-------------------0---------------------0------------------0
|                   | Two Fists Up        | A                |
|                   | Basic Wave          | Y                |
|                   | Walk One Fist Up    | X                |
|                   | Slap Hands Left     | B                |
0-------------------0---------------------0------------------0

0-------------------0
| Ready Position    |
0-------------------0--------------------0-------------------0
| Weak Strike       | Chop               | A                 |
| Medium Strike     | Side Roundhouse    | Left or Right + A |
| Strong Strike     | Drop Kick          | Up or Down + A    |
| Front Standing    | Hip Toss           | Y                 |
|                   | Fireman's Carry    | Left or Right + Y |
|                   | Locked             |                   |
| Behind            | Back Slide         | Y                 |
|                   | Layout Reverse DDT | Left or Right + Y |
0-------------------0--------------------0-------------------0

0-------------------0
| Tie-up            |
0-------------------0-------------------------0--------------0
| Vertical Suplex   | Front Suplex            | A            |
|                   | Vertical Suplex         | Y            |
| Scoop Slam        | Scoop Slam              | A            |
|                   | Fall Forward Scoop      | Y            |
| Head Between Legs | Powerbomb               | A            |
|                   | Locked                  |              |
| Belly-to-Belly    | Belly-to-Belly Suplex   | A            |
|                   | Locked                  |              |
0-------------------0-------------------------0--------------0

0-------------------0
| Grab From Behind  |
0-------------------0----------------------0-----------------0
| Gut Wrench        | Victory Roll Pin     | A               |
|                   | Locked               |                 |
| Samoan Drop       | Face Drop            | A               |
|                   | Locked               |                 |
| Full Nelson       | Sleeper Submission   | A               |
|                   | Locked               |                 |
0-------------------0----------------------0-----------------0

0-------------------0
| Bent Over         |
0-------------------0--------------------0-------------------0
| Front             | Swingding Sitout   | Y                 |
|                   | Face Buster        | Left or Right + Y |
| Behind            | Cobra Twist        | Y                 |
|                   | Bulldog            | Left or Right + Y |
0-------------------0--------------------0-------------------0

0--------------------0
| Opponent on Ground |
0-------------------00
| On Belly          |
0-------------------0--------------------0-------------------0
| Head              | Seated Chinlock    | Y                 |
| Side              | Bow and Arrow      | Y                 |
| Feet              | Romero Chinlock    | Y                 |
0-------------------0--------------------0-------------------0
| On Back           |
0-------------------0----------------------0-----------------0
| Choke             | Flip Over Neck Whip  | A               |
|                   | Locked               |                 |
| Mount             | Reverse Figure Four  | X               |
| Hold Legs         | Ankle Stretch        | A               |
|                   | Locked               |                 |
0-------------------0----------------------0-----------------0

0--------------------0
| Opponent in Corner |
0-------------------00-------------------0-------------------0
| Facing In         | Tornado Crusher    | Y                 |
|                   | Tornado DDT        | Left or Right + Y |
| Facing Out        | Turn Post Slam     | Y                 |
| Sit TB            | Bulldog            | Y                 |
| Sit Corner        | Slingshot          | Y                 |
| Tree of Woe       | Punch Combo        | Y                 |
0-------------------0--------------------0-------------------0

0----------------------0
| Turnbuckle           |
0----------------------0-------------------0-----------------0
| Opp Dizzy Stand      | Drop Kick         | Any direction+A |
| Opp Ready Position   | Missile Drop Kick | Any direction+A |
| Opp Dizzy Ground     | Leaping Elbow     | Any direction+A |
| Opp Dizzy out Stand  | Double Axe Handle | Any direction+A |
| Opp Dizzy out Ground | Leaping Elbow     | Any direction+A |
0----------------------0-------------------0-----------------0

0-------------------0
| Apron             |
0-------------------0--------------------0-------------------0
| Tie-up in Ring    | Piledriver         | Y                 |
| Tie-up on Apron   | Piledriver         | Y                 |
| SB Standing       | SB Drop Kick       | Y                 |
| SB Ground         | SB Splash          | Y                 |
| SB Floor Stand    | Locked             |                   |
| SB Floor Ground   | Locked             |                   |
| Standing Plancha  | Top Rope Moonsault | A                 |
0-------------------0--------------------0-------------------0

0-------------------0
| Opponent Running  |
0-------------------0--------------------0-------------------0
| Standing          | Fujiwara Arm Bar   | A                 |
|                   | Tilt-A-Whirl Slam  | Y                 |
0-------------------0--------------------0-------------------0

0---------------------0
| Running             |
0---------------------0---------------------0----------------0
| Opponent Standing   | Flying Forearm      | A, Y, or X     |
| Opponent on Ground  | Rolling Senton      | A, Y, or X     |
| Opponent in Corner  | Monkey Flip         | A, Y, or X     |
| Opponent Corner Sit | Bronco Buster       | A, Y, or X     |
| Opponent Outside    | Clear Plancha       | A              |
| Tree of Woe         | Running Drop Kick   | A, Y, or X     |
0---------------------0---------------------0----------------0

0-------------------0--------------------0-------------------0
| Weapon Attack     | Double Chair Shot  | Y                 |
0-------------------0--------------------0-------------------0

0-----------------0
| David von Erich |
0-----------------0
Height: 6'6"
Weight: 280 lbs.
Hometown: Denton, Texas
Crowd Reaction: Loved
Finisher: The Claw
 - Ready Position --> tap Down on D-pad
Manager 1: Kerry
Manager 2: Fritz
Manager 3: Kevin
Manager 4: Michael

0-------------------0
| Entrance          |
0-------------------0---------------------0------------------0
|                   | Double Howdy        | A                |
|                   | Two Fists Up        | Y                |
|                   | Slap Hands Left     | X                |
|                   | Slap Hands Right    | B                |
0-------------------0---------------------0------------------0

0-------------------0
| Ready Position    |
0-------------------0--------------------0-------------------0
| Weak Strike       | Shin Kick          | A                 |
| Medium Strike     | Lean in Uppercut   | Left or Right + A |
| Strong Strike     | Side Roundhouse    | Up or Down + A    |
| Front Standing    | Fireman's Carry    | Y                 |
|                   | Sit Out Choke Slam | Left or Right + Y |
|                   | Locked             |                   |
| Behind            | Cobra Slam         | Y                 |
|                   | Atomic Drop        | Left or Right + Y |
0-------------------0--------------------0-------------------0

0-------------------0
| Tie-up            |
0-------------------0--------------------0-------------------0
| Vertical Suplex   | Corkscrew Suplex   | A                 |
|                   | Rolling Suplex     | Y                 |
| Scoop Slam        | Twirl Forward Slam | A                 |
|                   | Seated Driver      | Y                 |
| Head Between Legs | Sit Out Piledriver | A                 |
|                   | Locked             |                   |
| Belly-to-Belly    | Head Arm Suplex    | A                 |
|                   | Locked             |                   |
0-------------------0--------------------0-------------------0

0-------------------0
| Grab From Behind  |
0-------------------0----------------------0-----------------0
| Gut Wrench        | 360 Belly-to-Back    | A               |
|                   | Locked               |                 |
| Samoan Drop       | Samoan Powerbomb     | A               |
|                   | Locked               |                 |
| Full Nelson       | Sleeper Submission   | A               |
|                   | Locked               |                 |
0-------------------0----------------------0-----------------0

0-------------------0
| Bent Over         |
0-------------------0--------------------0-------------------0
| Front             | DDT                | Y                 |
|                   | Kamikaze           | Left or Right + Y |
| Behind            | Pumphandle Slam    | Y                 |
|                   | Octopus Hold       | Left or Right + Y |
0-------------------0--------------------0-------------------0

0--------------------0
| Opponent on Ground |
0-------------------00
| On Belly          |
0-------------------0--------------------0-------------------0
| Head              | Diving Headbutt    | Y                 |
| Side              | Bow and Arrow      | Y                 |
| Feet              | Dragon Cross       | Y                 |
0-------------------0--------------------0-------------------0
| On Back           |
0-------------------0----------------------0-----------------0
| Choke             | Spinal Tap           | A               |
|                   | Locked               |                 |
| Mount             | Fuji Arm Bar         | X               |
| Hold Legs         | Boston Crab          | A               |
|                   | Locked               |                 |
0-------------------0----------------------0-----------------0

0--------------------0
| Opponent in Corner |
0-------------------00--------------------------0------------0
| Facing In         | Climb TB and Pummel       | Y          |
|                   | Diamond Dust              | L or R + Y |
| Facing Out        | Turn Post Slam            | Y          |
| Sit TB            | Belly-to-Belly Superplex  | Y          |
| Sit Corner        | Corner Powerbomb          | Y          |
| Tree of Woe       | Punch Combo               | Y          |
0-------------------0---------------------------0------------0

0----------------------0
| Turnbuckle           |
0----------------------0-----------------0-------------------0
| Opp Dizzy Stand      | Slice           | Any direction + A |
| Opp Ready Position   | Drop Kick       | Any direction + A |
| Opp Dizzy Ground     | Senton Bomb     | Any direction + A |
| Opp Dizzy out Stand  | Drop Kick       | Any direction + A |
| Opp Dizzy out Ground | Leaping Elbow   | Any direction + A |
0----------------------0-----------------0-------------------0

0-------------------0
| Apron             |
0-------------------0--------------------0-------------------0
| Tie-up in Ring    | Choke Slam         | Y                 |
| Tie-up on Apron   | Choke Slam         | Y                 |
| SB Standing       | SB Lariat          | Y                 |
| SB Ground         | Flip Over Leg Drop | Y                 |
| SB Floor Stand    | Locked             |                   |
| SB Floor Ground   | Locked             |                   |
| Standing Plancha  | Standing Plancha   | A                 |
0-------------------0--------------------0-------------------0

0-------------------0
| Opponent Running  |
0-------------------0--------------------0-------------------0
| Standing          | Flapjack           | A                 |
|                   | Tilt-A-Whirl Slam  | Y                 |
0-------------------0--------------------0-------------------0

0---------------------0
| Running             |
0---------------------0---------------------0----------------0
| Opponent Standing   | Knee to Face        | A, Y, or X     |
| Opponent on Ground  | Fist Drop           | A, Y, or X     |
| Opponent in Corner  | Running Clothesline | A, Y, or X     |
| Opponent Corner Sit | Shoulder Block      | A, Y, or X     |
| Opponent Outside    | Running Plancha     | A              |
| Tree of Woe         | Shoulder Block      | A, Y, or X     |
0---------------------0---------------------0----------------0

0-------------------0--------------------0-------------------0
| Weapon Attack     | Triple Can Hit     | Y                 |
0-------------------0--------------------0-------------------0

0---------------0
| Dory Funk Jr. |
0---------------0
Height: 6'2"
Weight: 240 lbs.
Hometown: Amarillo, Texas
Crowd Reaction: Loved
Finisher: Spinning Toe Hold
 - Opponent Dizzy Ground --> Hold Legs --> tap Down on D-pad
Manager 1: Terry Funk

0-------------------0
| Entrance          |
0-------------------0---------------------0------------------0
|                   | Two Fists Up        | A                |
|                   | Hand on Hips        | Y                |
|                   | Slap Hands Left     | X                |
|                   | Slap Hands Right    | B                |
0-------------------0---------------------0------------------0

0-------------------0
| Ready Position    |
0-------------------0---------------------0------------------0
| Weak Strike       | Punch to Head       | A                |
| Medium Strike     | Lean in Uppercut    | Left or Right +A |
| Strong Strike     | Super Kick          | Up or Down + A   |
| Front Standing    | Enziguri            | Y                |
|                   | Falling Neckbreaker | Left or Right +Y |
|                   | Hip Toss            | Up or Down + Y   |
| Behind            | Reverse DDT         | Y                |
|                   | School Boy Pin      | Left or Right +Y |
0-------------------0---------------------0------------------0

0-------------------0
| Tie-up            |
0-------------------0-------------------------0--------------0
| Vertical Suplex   | Snap Suplex             | A            |
|                   | Front Suplex            | Y            |
| Scoop Slam        | Scoop Slam              | A            |
|                   | Fall Forward Scoop      | Y            |
| Head Between Legs | Powerbomb               | A            |
|                   | Fall Back Powerbomb     | Y            |
| Belly-to-Belly    | Belly-to-Belly Suplex   | A            |
|                   | Locked                  |              |
0-------------------0-------------------------0--------------0

0-------------------0
| Grab From Behind  |
0-------------------0----------------------0-----------------0
| Gut Wrench        | Victory Roll Pin     | A               |
|                   | Release German       | Y               |
| Samoan Drop       | Samoan Drop          | A               |
|                   | Locked               |                 |
| Full Nelson       | Reverse Face Buster  | A               |
|                   | Russian Leg Sweep    | Y               |
0-------------------0----------------------0-----------------0

0-------------------0
| Bent Over         |
0-------------------0----------------------0-----------------0
| Front             | Impact DDT           | Y               |
|                   | Spinning Neckbreaker | Left/Right + Y  |
| Behind            | Cobra Twist          | Y               |
|                   | Locked               |                 |
0-------------------0----------------------0-----------------0

0--------------------0
| Opponent on Ground |
0-------------------00
| On Belly          |
0-------------------0--------------------0-------------------0
| Head              | Drop Kick to Face  | Y                 |
| Side              | Crossface          | Y                 |
| Feet              | STF Submission     | Y                 |
0-------------------0--------------------0-------------------0
| On Back           |
0-------------------0----------------------0-----------------0
| Choke             | Flip Over Neck Whip  | A               |
|                   | Straight Jacket      | Y               |
|                   | Locked               |                 |
| Mount             | American Figure Four | X               |
|                   | Locked               |                 |
| Hold Legs         | Figure Four          | A               |
|                   | Single Leg Crab      | Y               |
|                   | Texas Clover Leaf    | X               |
0-------------------0----------------------0-----------------0

0--------------------0
| Opponent in Corner |
0-------------------00--------------------0------------------0
| Facing In         | Climb TB and Pummel | Y                |
|                   | Locked              |                  |
| Facing Out        | Choke               | Y                |
| Sit TB            | Bulldog             | Y                |
| Sit Corner        | Slingshot           | Y                |
| Tree of Woe       | Shoulder Thrusts    | Y                |
0-------------------0---------------------0------------------0

0----------------------0
| Turnbuckle           |
0----------------------0-------------------0-----------------0
| Opp Dizzy Stand      | Crossbody         | Any direction+A |
| Opp Ready Position   | Drop Kick         | Any direction+A |
| Opp Dizzy Ground     | Moonsault         | Any direction+A |
| Opp Dizzy out Stand  | Double Axe Handle | Any direction+A |
| Opp Dizzy out Ground | Splash            | Any direction+A |
0----------------------0-------------------0-----------------0

0-------------------0
| Apron             |
0-------------------0--------------------0-------------------0
| Tie-up in Ring    | Bring In Hard Way  | Y                 |
| Tie-up on Apron   | Bring Out Hard Way | Y                 |
| SB Floor Stand    | Locked             |                   |
| SB Floor Ground   | Locked             |                   |
0-------------------0--------------------0-------------------0

0-------------------0
| Opponent Running  |
0-------------------0--------------------0-------------------0
| Standing          | Drop Toe Hold      | A                 |
|                   |                    | Y                 |
0-------------------0--------------------0-------------------0

0---------------------0
| Running             |
0---------------------0---------------------0----------------0
| Opponent Standing   | Flying Forearm      | A, Y, or X     |
| Opponent on Ground  | Front Elbow Drop    | A, Y, or X     |
| Opponent in Corner  | Flying Butt         | A, Y, or X     |
| Opponent Corner Sit | Running Drop Kick   | A, Y, or X     |
| Tree of Woe         | Running Drop Kick   | A, Y, or X     |
0---------------------0---------------------0----------------0

0-------------------0--------------------0-------------------0
| Weapon Attack     | Double Chair Shot  | Y                 |
0-------------------0--------------------0-------------------0

0-------------0
| Rob Van Dam |
0-------------0
Height: 6'0"
Weight: 235 lbs.
Hometown: Battle Creek, Michigan
Crowd Reaction: Loved
Finisher: 5 Star Frog Splash
 - Turnbuckle --> Opponent on Ground Dizzy --> tap Down on D-pad

0-------------------0
| Entrance          |
0-------------------0---------------------0------------------0
|                   | Arms Out            | A                |
|                   | RVD                 | Y                |
|                   | RVD Single          | X                |
|                   | Slap Hands Left     | B                |
0-------------------0---------------------0------------------0

0-------------------0
| Ready Position    |
0-------------------0--------------------0-------------------0
| Weak Strike       | Calf Kick          | A                 |
| Medium Strike     | Side Roundhouse    | Left or Right + A |
| Strong Strike     | Super Kick         | Up or Down + A    |
| Front Standing    | Double Roundhouse  | Y                 |
|                   | Locked             |                   |
|                   | Locked             |                   |
| Behind            | Cobra Slam         | Y                 |
|                   | Low Blow           | Left or Right + Y |
0-------------------0--------------------0-------------------0

0-------------------0
| Tie-up            |
0-------------------0----------------------0-----------------0
| Vertical Suplex   | Fisherman Buster     | A               |
|                   | Rolling Suplex       | Y               |
| Scoop Slam        | Power Driver         | A               |
|                   | Fall Away Slam       | Y               |
| Head Between Legs | Underhook Piledriver | A               |
|                   | Cradle Piledriver    | Y               |
| Belly-to-Belly    | Northern Lights      | A               |
|                   | Locked               |                 |
0-------------------0----------------------0-----------------0

0-------------------0
| Grab From Behind  |
0-------------------0----------------------0-----------------0
| Gut Wrench        | Rolling German       | A               |
|                   | Victory Roll Pin     | Y               |
|                   | Locked               |                 |
| Samoan Drop       | Elevated Ace Crusher | A               |
|                   | Locked               |                 |
| Full Nelson       | Dragon Suplex        | A               |
0-------------------0----------------------0-----------------0

0-------------------0
| Bent Over         |
0-------------------0--------------------0-------------------0
| Front             | Spinning DDT       | Y                 |
|                   | DDT                | Left or Right + Y |
| Behind            | Rev Firemans Carry | Y                 |
|                   | Locked             |                   |
0-------------------0--------------------0-------------------0

0--------------------0
| Opponent on Ground |
0-------------------00
| On Belly          |
0-------------------0--------------------0-------------------0
| Head              | Drop Kick to Face  | Y                 |
| Side              | La Magistral Pin   | Y                 |
| Feet              | Dragon Cross       | Y                 |
0-------------------0--------------------0-------------------0
| On Back           |
0-------------------0--------------------0-------------------0
| Choke             | Drop Kick to Head  | A                 |
| Mount             | Fuji Arm Bar       | X                 |
| Hold Legs         | Boston Crab        | A                 |
0-------------------0--------------------0-------------------0

0--------------------0
| Opponent in Corner |
0-------------------00-------------------0-------------------0
| Facing In         | Kick Combo         | Y                 |
|                   | Locked             |                   |
| Facing Out        | Neckbreaker        | Y                 |
| Sit TB            | Hurricanrana       | Y                 |
| Sit Corner        | Drop Kick to Nuts  | Y                 |
| Tree of Woe       | Stand on Nuts      | Y                 |
0-------------------0--------------------0-------------------0

0----------------------0
| Turnbuckle           |
0----------------------0---------------------0---------------0
| Opp Dizzy Stand      | Corkscrew Lariat    | Any dir. + A  |
|                      | Locked              |               |
| Opp Ready Position   | Missile Drop Kick   | Any dir. + A  |
|                      | Spinning Wheel Kick | Any dir. + Y  |
| Opp Dizzy Ground     | Split Leg Moonsault | Any dir. + A  |
| Opp Dizzy out Stand  | Jump Hurricanrana   | Any dir. + A  |
| Opp Dizzy out Ground | Locked              |               |
0----------------------0---------------------0---------------0

0-------------------0
| Apron             |
0-------------------0--------------------0-------------------0
| Tie-up in Ring    | Sunset Flip        | Y                 |
| Tie-up on Apron   | Sunset Flip        | Y                 |
| SB Standing       | SB Wheel Kick      | Y                 |
| SB Ground         | Flip Over Senton   | Y                 |
| SB Floor Stand    | SB Drop Kick       | Y                 |
| SB Floor Ground   | Asai Moonsault     | Y                 |
| Standing Plancha  | Top Rope Moonsault | A                 |
0-------------------0--------------------0-------------------0

0-------------------0
| Opponent Running  |
0-------------------0--------------------0-------------------0
| Standing          | Drop Kick          | A                 |
|                   | Locked             |                   |
0-------------------0--------------------0-------------------0

0---------------------0
| Running             |
0---------------------0----------------------0---------------0
| Opponent Standing   | High Leg Clothesline | A, Y, or X    |
| Opponent on Ground  | Rolling Thunder      | A, Y, or X    |
| Opponent in Corner  | Running Splash       | A, Y, or X    |
| Opponent Corner Sit | Running Drop Kick    | A, Y, or X    |
| Opponent Outside    | Clear Plancha        | A             |
| Tree of Woe         | Running Drop Kick    | A, Y, or X    |
0---------------------0----------------------0---------------0

0-------------------0--------------------0-------------------0
| Weapon Attack     | Van Daminator      | Y                 |
0-------------------0--------------------0-------------------0

0------0
| Sabu |
0------0
Height: 6'0"
Weight: 220 lbs.
Hometown: Bombay, India
Crowd Reaction: Hated
Finisher: Camel Clutch
 - Opponent on Ground Dizzy --> Belly --> Head --> tap Down on D-pad
Manager 1: The Sheik

0-------------------0
| Entrance          |
0-------------------0---------------------0------------------0
|                   | Hand on Hips        | A                |
|                   | Point Up            | Y                |
|                   | Look at Fans        | X                |
|                   | Point at Ring       | B                |
0-------------------0---------------------0------------------0

0-------------------0
| Ready Position    |
0-------------------0--------------------0-------------------0
| Weak Strike       | Shin Kick          | A                 |
| Medium Strike     | Drop Kick          | Left or Right + A |
| Strong Strike     | Jumping Spin Kick  | Up or Down + A    |
| Front Standing    | Reverse Leg Sweep  | Y                 |
|                   | Enziguri           | Left or Right + Y |
|                   | Locked             |                   |
| Behind            | Reverse DDT        | Y                 |
|                   | Layout Reverse DDT | Left or Right + Y |
0-------------------0--------------------0-------------------0

0-------------------0
| Tie-up            |
0-------------------0----------------------0-----------------0
| Vertical Suplex   | Snap Suplex          | A               |
|                   | Fisherman Suplex     | Y               |
| Scoop Slam        | Shoulder Breaker     | A               |
|                   | Locked               |                 |
| Head Between Legs | Underhook Piledriver | A               |
| Belly-to-Belly    | Head Arm Suplex      | A               |
0-------------------0----------------------0-----------------0

0-------------------0
| Grab From Behind  |
0-------------------0----------------------0-----------------0
| Gut Wrench        | Tiger Suplex         | A               |
|                   | Locked               |                 |
| Samoan Drop       | Face Drop            | A               |
|                   | Locked               |                 |
| Full Nelson       | Reverse Face Buster  | A               |
|                   | Dragon Sleeper       | Y               |
0-------------------0----------------------0-----------------0

0-------------------0
| Bent Over         |
0-------------------0--------------------0-------------------0
| Front             | Spinning Neckbreak | Y                 |
|                   | Kamikaze           | Left or Right + Y |
| Behind            | Bulldog            | Y                 |
0-------------------0--------------------0-------------------0

0--------------------0
| Opponent on Ground |
0-------------------00
| On Belly          |
0-------------------0--------------------0-------------------0
| Head              | Seated Chinlock    | Y                 |
| Side              | La Magistral Pin   | Y                 |
| Feet              | Inverted STF       | Y                 |
0-------------------0--------------------0-------------------0
| On Back           |
0-------------------0----------------------0-----------------0
| Choke             | Drop Kick to Head    | A               |
|                   | Locked               |                 |
| Mount             | American Figure Four | X               |
| Hold Legs         | Kick to Groin        | A               |
|                   | Elevated Crab        | Y               |
|                   | Locked               |                 |
0-------------------0----------------------0-----------------0

0--------------------0
| Opponent in Corner |
0-------------------00-------------------0-------------------0
| Facing In         | SB Crossbody       | Y                 |
|                   | Locked             |                   |
| Facing Out        | Rake Eyes          | Y                 |
| Sit TB            | Hurricanrana       | Y                 |
| Sit Corner        | Drop Kick to Nuts  | Y                 |
| Tree of Woe       | Punch Combo        | Y                 |
0-------------------0--------------------0-------------------0

0----------------------0
| Turnbuckle           |
0----------------------0-------------------0-----------------0
| Opp Dizzy Stand      | Flip Over DDT     | Any direction+A |
| Opp Ready Position   | Missile Drop Kick | Any direction+A |
|                      | Locked            |                 |
| Opp Dizzy Ground     | Moonsault         | Any direction+A |
| Opp Dizzy out Stand  | Crossbody         | Any direction+A |
| Opp Dizzy out Ground | Leg Drop          | Any direction+A |
0----------------------0-------------------0-----------------0

0-------------------0
| Apron             |
0-------------------0--------------------0-------------------0
| Tie-up in Ring    | Sunset Flip        | Y                 |
| Tie-up on Apron   | Sunset Flip        | Y                 |
| SB Standing       | SB Drop Kick       | Y                 |
| SB Ground         | Flip Over Leg Drop | Y                 |
| SB Floor Stand    | SB Drop Kick       | Y                 |
| SB Floor Ground   | Corkscrew          | Y                 |
| Standing Plancha  | Top Rope Senton    | A                 |
0-------------------0--------------------0-------------------0

0-------------------0
| Opponent Running  |
0-------------------0--------------------0-------------------0
| Standing          | Tilt-A-Whirl       | A                 |
|                   | Locked             |                   |
0-------------------0--------------------0-------------------0

0---------------------0
| Running             |
0---------------------0---------------------0----------------0
| Opponent Standing   | Running Wheel Kick  | A, Y, or X     |
| Opponent on Ground  | Double Leg Drop     | A, Y, or X     |
| Opponent in Corner  | Monkey Flip         | A, Y, or X     |
| Opponent Corner Sit | Running Drop Kick   | A, Y, or X     |
| Opponent Outside    | Senton Plancha      | A              |
| Tree of Woe         | Running Drop Kick   | A, Y, or X     |
0---------------------0---------------------0----------------0

0-------------------0--------------------0-------------------0
| Weapon Attack     | Triple Can Hit     | Y                 |
0-------------------0--------------------0-------------------0

0--------------------0
| Captain Lou Albano |
0--------------------0
Height: 5'9"
Weight: 230 lbs.
Hometown: Carmel, New York
Crowd Reaction: Hated
Finisher: Seated Front Suplex
 - Tie-Up --> Vertical Suplex --> tap Down on D-pad

0-------------------0
| Entrance          |
0-------------------0---------------------0------------------0
|                   | Stop and Taunt Fans | A                |
|                   | Arm Flex Wave       | Y                |
|                   | Flex Up             | X                |
|                   | Threaten Crowd      | B                |
0-------------------0---------------------0------------------0

0-------------------0
| Ready Position    |
0-------------------0--------------------0-------------------0
| Weak Strike       | Double Fist Punch  | A                 |
| Medium Strike     | Right Jab          | Left or Right + A |
| Strong Strike     | Big Left Punch     | Up or Down + A    |
| Front Standing    | Inverted Stinger   | Y                 |
|                   | Sidewalk Slam      | Left or Right + Y |
|                   | Divine Hammer      | Up or Down + Y    |
| Behind            | Low Blow           | Y                 |
|                   | Cobra Slam         | Left or Right + Y |
0-------------------0--------------------0-------------------0

0-------------------0
| Tie-up            |
0-------------------0------------------------0---------------0
| Vertical Suplex   | Hanging Powerslam      | A             |
|                   | Front Suplex           | Y             |
|                   | Locked                 |               |
| Scoop Slam        | Seated Driver          | A             |
|                   | Fire Thunder Driver    | Y             |
|                   | Locked                 |               |
| Head Between Legs | Cradle Piledriver      | A             |
|                   | Fall Forward Powerbomb | Y             |
|                   | Locked                 |               |
| Belly-to-Belly    | Bear Hug Slam          | A             |
|                   | Fly Swatter            | Y             |
|                   | Locked                 |               |
0-------------------0------------------------0---------------0

0-------------------0
| Grab From Behind  |
0-------------------0----------------------0-----------------0
| Gut Wrench        | Belly-Back Powerbomb | A               |
|                   | Rolling German       | Y               |
|                   | Locked               |                 |
| Samoan Drop       | Chest Breaker        | A               |
|                   | Falling Reverse DDT  | Y               |
|                   | Locked               |                 |
| Full Nelson       | Doujimi Submission   | A               |
|                   | Crossface Wing       | Y               |
|                   | Locked               |                 |
0-------------------0----------------------0-----------------0

0-------------------0
| Bent Over         |
0-------------------0----------------------0-----------------0
| Front             | Rocker Dropper       | Y               |
|                   | Inverted Backbreaker | Left/Right + Y  |
| Behind            | Rack                 | Y               |
|                   | Stretch Plum         | Left/Right + Y  |
0-------------------0----------------------0-----------------0

0--------------------0
| Opponent on Ground |
0-------------------00
| On Belly          |
0-------------------0--------------------0-------------------0
| Head              | Crossface Punches  | Y                 |
| Side              | Oklahoma Roll      | Y                 |
| Feet              | Dragon Cross       | Y                 |
0-------------------0--------------------0-------------------0
| On Back           |
0-------------------0----------------------0-----------------0
| Choke             | Surfboard Stretch    | A               |
|                   | Blatant Choke        | Y               |
|                   | Locked               |                 |
| Mount             | Choke Punch          | X               |
|                   | Two Elbows           | Y               |
| Hold Legs         | Headbutt to Groin    | A               |
|                   | Kick to Groin        | Y               |
|                   | Locked               |                 |
0-------------------0----------------------0-----------------0

0--------------------0
| Opponent in Corner |
0-------------------00-------------------0-------------------0
| Facing In         | Big Double Chop    | Y                 |
|                   | Punch Combo        | Left or Right + Y |
| Facing Out        | Rake Eyes          | Y                 |
| Sit TB            | Superplex          | Y                 |
| Sit Corner        | The Insult         | Y                 |
| Tree of Woe       | Elbow to Nuts      | Y                 |
0-------------------0--------------------0-------------------0

0----------------------0
| Turnbuckle           |
0----------------------0-------------------0-----------------0
| Opp Ready Position   | Locked            |                 |
0----------------------0-------------------0-----------------0

0-------------------0
| Apron             |
0-------------------0--------------------0-------------------0
| Tie-up in Ring    | Choke Slam         | Y                 |
| Tie-up on Apron   | Choke Slam         | Y                 |
0-------------------0--------------------0-------------------0

0-------------------0
| Opponent Running  |
0-------------------0--------------------0-------------------0
| Standing          | Flapjack           | A                 |
|                   | Impact Spinebuster |                   |
0-------------------0--------------------0-------------------0

0---------------------0
| Running             |
0---------------------0----------------------0---------------0
| Opponent Standing   | Vertical Body Splash | A, Y, or X    |
| Opponent on Ground  | Bionic Elbow         | A, Y, or X    |
| Opponent in Corner  | Avalanche            | A, Y, or X    |
| Opponent Corner Sit | Shoulder Block       | A, Y, or X    |
| Tree of Woe         | Shoulder Block       | A, Y, or X    |
0---------------------0----------------------0---------------0

0-------------------0--------------------0-------------------0
| Weapon Attack     | Double Chair       | Y                 |
0-------------------0--------------------0-------------------0

0-------------------------------------0
| "The Mouth of the South" Jimmy Hart |
0-------------------------------------0
Height: 5'10"
Weight: 170 lbs.
Hometown: Memphis, Tennessee
Crowd Reaction: Loved
Finisher: Hartliner
 - Ready Position --> tap Down on D-pad

0-------------------0
| Entrance          |
0-------------------0---------------------0------------------0
|                   | Basic Wave          | A                |
|                   | Talk into Megaphone | Y                |
|                   | Pump One Hand       | X                |
|                   | Double Howdy        | B                |
0-------------------0---------------------0------------------0

0-------------------0
| Ready Position    |
0-------------------0--------------------0-------------------0
| Weak Strike       | Shin Kick          | A                 |
| Medium Strike     | Lean in Uppercut   | Left or Right + A |
| Strong Strike     | Tornado Punch      | Up or Down + A    |
| Front Standing    | Neck Breaker       | Y                 |
|                   | Falling Chokeslam  | Left or Right + Y |
|                   | Locked             |                   |
| Behind            | DDT Slam           | Y                 |
|                   | Reverse Suplex     | Left or Right + Y |
0-------------------0--------------------0-------------------0

0-------------------0
| Tie-up            |
0-------------------0----------------------0-----------------0
| Vertical Suplex   | Snap Suplex          | A               |
|                   | Fisherman Suplex     | Y               |
| Scoop Slam        | Fall Away Slam       | A               |
|                   | Twirl Forward Slam   | Y               |
| Head Between Legs | Elevated Powerbomb   | A               |
|                   | Locked               |                 |
| Belly-to-Belly    | Head Arm Suplex      | A               |
|                   | Locked               |                 |
0-------------------0----------------------0-----------------0

0-------------------0
| Grab From Behind  |
0-------------------0----------------------0-----------------0
| Gut Wrench        | Tiger Suplex         | A               |
|                   | Locked               |                 |
| Samoan Drop       | Samoan Powerbomb     | A               |
|                   | Locked               |                 |
| Full Nelson       | Katahajime Plex      | A               |
|                   | Locked               |                 |
0-------------------0----------------------0-----------------0

0-------------------0
| Bent Over         |
0-------------------0----------------------0-----------------0
| Front             | Inverted Facebuster  | Y               |
|                   | Forward Face Buster  | Left/Right +Y   |
| Behind            | Rev Fireman's Carry  | Y               |
|                   | Pumphandle Powerslam | Left/Right + Y  |
0-------------------0----------------------0-----------------0

0--------------------0
| Opponent on Ground |
0-------------------00
| On Belly          |
0-------------------0--------------------0-------------------0
| Head              | Straight Jacket    | Y                 |
| Side              | Crossface          | Y                 |
| Feet              | Romero Chinlock    | Y                 |
0-------------------0--------------------0-------------------0
| On Back           |
0-------------------0----------------------0-----------------0
| Choke             | Dragon Lock          | A               |
|                   | Locked               |                 |
| Mount             | Head Shot Combo      | X               |
| Hold Legs         | Elevated Crab        | A               |
|                   | Locked               |                 |
0-------------------0----------------------0-----------------0

0--------------------0
| Opponent in Corner |
0-------------------00-------------------0-------------------0
| Facing In         | Tornado Crusher    | Y                 |
|                   | Big Double Chop    | Left or Right + Y |
| Facing Out        | Turn Post Slam     | Y                 |
| Sit TB            | Hurricanrana       | Y                 |
| Sit Corner        | Drop Kick to Nuts  | Y                 |
| Tree of Woe       | Shoulder Thrusts   | Y                 |
0-------------------0--------------------0-------------------0

0----------------------0
| Turnbuckle           |
0----------------------0---------------------0---------------0
| Opp Dizzy Stand      | Flip Over DDT       | Any dir. + A  |
| Opp Ready Position   | Shoulder Block      | Any dir. + A  |
| Opp Dizzy Ground     | Shooting Star Press | Any dir. + A  |
| Opp Dizzy out Stand  | Missile Drop Kick   | Any dir. + A  |
| Opp Dizzy out Ground | Shooting Star Press | Any dir. + A  |
0----------------------0---------------------0---------------0

0-------------------0
| Apron             |
0-------------------0--------------------0-------------------0
| Tie-up in Ring    | Piledriver         | Y                 |
| Tie-up on Apron   | Piledriver         | Y                 |
| SB Standing       | Flip Over Lariat   | Y                 |
| SB Ground         | Flip Over Senton   | Y                 |
| SB Floor Stand    | Locked             |                   |
| SB Floor Ground   | Locked             |                   |
| Standing Plancha  | Top Rope Moonsault | A                 |
0-------------------0--------------------0-------------------0

0-------------------0
| Opponent Running  |
0-------------------0--------------------0-------------------0
| Standing          | Powerslam          | A                 |
|                   | Time Bomb          | Y                 |
0-------------------0--------------------0-------------------0

0---------------------0
| Running             |
0---------------------0---------------------0----------------0
| Opponent Standing   | Spear               | A, Y, or X     |
| Opponent on Ground  | Double Leg Drop     | A, Y, or X     |
| Opponent in Corner  | Rolling Clothesline | A, Y, or X     |
| Opponent Corner Sit | Shoulder Block      | A, Y, or X     |
| Opponent Outside    | Clear Plancha       | A              |
| Tree of Woe         | Shoulder Block      | A, Y, or X     |
0---------------------0---------------------0----------------0

0-------------------0--------------------0-------------------0
| Weapon Attack     | Triple Can Hit     | Y                 |
0-------------------0--------------------0-------------------0

Whew... next section.

  0=====================0
 / 6.) Create-A-Legend /|
0=====================0 0
| 6.) Create-A-Legend |/
0=====================0

One of the coolest aspects of this game is your ability to create your own
wrestlers.  I will place here the steps to create a certain wrestler,
everything you need to know.

The first two are Shawn Micheals and Marty Jannety when they were the tag
team of the Rockers.
For their finishers, their basic combination was for Jannety to knock the
opponent down with a Missile Drop Kick, then Micheals would get the pin with
the Crossbody.

Shawn Micheals:
Base: Ricky Morton
Left/Right Arms: Super (Yellow)
Pelvis: Tights: Lightning (Yellow)
Kneepads: Standard 2 (Blue)
Boots: High Boots (White)
Fighting Style: High Flyer
Finisher: Turnbuckle: Opponent Dizzy Ground: Flying Crossbody

Marty Jannety:
Base: Robert Gibson
Remove the torso hair, then do the same as Micheals.
Finisher: Turnbuckle: Opponent Dizzy Stand: Missile Drop Kick

This is probably the one CAL I am most proud of:
The Undertaker: (Dead Man Style)
Body Type: Muscle
Skin: Ripped (set to lightest shade)
Head: Size: up 5 clicks
Head: Skin: Generic
Hair: Facial: Goatee 2: Black
Hair: Scalp: Shoulder Length 2: Black
Upper Body: Torso: Sleeveless: Outdoor: Black
Right Arm: Elbow Pad: Standard: Black
Right Arm: Wrist: Super: Purple (move all the way down)
Right Arm: Glove: Cleaning: Purple
Right Arm: Tattoos: Cannibal (move all the way up)
Left Arm: Wrist: Super: Purple (move all the way down)
Left Arm: Glove: Cleaning: Purple
Left Arm: Tattoos: Big Lizard
Lower Body: Pelvis: Tights: Tights: Black
Right and Left Legs: Boots: Hawk: Purple
Entrance Gear: Body: Mr. Fuji
Entrance Gear: Head: Hat

Names:
Short Name: Undertaker
Nick Name: The Undertaker
Finisher: Tombstone
 - Tie-Up --> Belly-to-Belly --> tap Down on D-pad
Hometown: Death Valley
Crowd: Loved
Manager: None
Music: Ivan Koloff
Wrestling Style: Grappler
Height: 6'10"
Weight: 330 lbs.

Shawn Micheals: (HBK style)
Body Type: Normal
Skin: Ripped
Hair: Light
Head: Hair: Scalp: Shoulder Length 1: Brown
Upper Body: Left and Right Arms: Gloves: Studs: Black
Upper Body: Left and Right Arms: Tape: Black (move all the way down)
Lower Body: Tights: Tights: White, Pattern: Hearts
Lower Body: Left and Right Legs: Kneepads: Standard 1: Black, Pattern: Hearts
Lower Body: Left and Right Legs: Boots: High Boots: Black
Short Name: HBK
Nick Name: The Heartbreak Kid
Finisher: Sweet Chin Music (Ready Position --> Strong Strike --> Super Kick)
 - Ready Position --> Tap Down on D-pad
Hometown: San Antonio, Texas
Crowd: Loved
Wrestling Style: All around
Height: 5'11"
Weight: 230 lbs.

Ken Shamrock: (Old WWF style)
Body Type: Muscle
Body Type: Skin: Ripped
Head: Hair: Scalp: Short Hair 3: Black
Upper Body: Left and Right Arms: Gloves: Studs: Black
Lower Body: Tights: Wrestling: Red
Left and Right Legs: Kneepads: Standard 1: Black
Left and Right Legs: Boots: Tall: Red
Finisher: Ankle Lock Submission
- Opponent Dizzy Ground --> Belly --> Feet --> tap Down on D-pad
Wrestling Style: All Around
Use plenty of kicks and submissions

(R.I.P.) Yokozona:
Body type: Obese, Skin Average
Hair: Scalp: Pony Tail 1 (Black)
Hair: Facial: Goatee 2 (Black)
Right Arm: Elbow Pad: Standard (Black)
Right Arm: Wrist: Tape (white, move all the way down)
Left Arm: Wrist: Tape (white, move all the way down)
Pelvis: Shorts: Metal (red, this was the closest I could get)
Pelvis: Belt: Black Leather (this was to try to get that black sumo belt)
Right Leg: Knee: Wrap (white, move as far down as you can)
Left Leg: Knee: Wrap (white, move as far down as you can)
Increase the size of his thighs, that boy had some thighs.
Entrance Gear, Music, Manager: Mr. Fuji
Weight: Max I could go up was 500 lbs.
Height: 6'5"
Fighting Style: Grappler
Have Avalance in corner and Running Legdrop as moves, I used a Running Splash
as the finisher, since Yokozuna can't be given a fighting style that allows
him to use the Banzai Drop since he can't climb the ropes.

I went for Yoko's 1996 look... check the Royal Rumble from 1996 or
Wreslemania 12 to get an idea of what I'm trying to do.

(R.I.P.) Big John Studd:

Body Type: Heavyweight
Hair: Facial: Beard2 (brown)
Hair: Scalp: Shoulder Length 2 (brown)
Pelvis: Tights: Tights (white)
Pelvis: Logos: Stars2, or 3 Spiked wheels down each leg
Boots: High Boots (red)
Fighting Style: Grappler
Finisher: Tie-up: Belly-to-Belly: Bear Hug
Entrance Gear: Body: Red Robe
Height: 6'11"
Weight: 375 pounds

-The following are all fLaMiNg rUbLe's CALs:-

Bam Bam Bigelow

Base: One Man Gang
Remove Everything, Change Skin Color to 2 then do the following
Appearance: Head: Facial, Hair: Beard1 (Black)
Appearance: Head: Hair: None
Appearance: Lowerbody: Tights: Flame (Black)
Appearance: Lowerbody: Left&Right Leg: Boot: Hiking (Black)
Appearance: Lowerbody: Pelvis: Pants: Plain (Black)
Appearance: Upperbody: Torso: Short Sleeve: Flame (Black)
Appearance: Upperbody: Torso: Hair (Light)
Appearance: Upperbody: Left&Right Wrist: Tape (White, Move to bottom)
Appearance: Upperbody: Left&Right Arms: Tatoos: Design 1
Appearance: Lowerbody: Left&Right Leg: Boot: Ivan Koloff (Black)
Fighting Style: Scientific
Finisher: Turnbuckle: Opponent Dizzy Ground: Flying Headbutt
Profile
Full Name: Bam Bam Bigelow
Short Name: Bam Bam
Nickname: None
Finisher: Greetings From Asbury Park
Hometown: Asbury Park, NJ
Height: 6'3"
Weight: 370 lbs
Music: Ivan Koloff
Crowd: Hated
Manager: None

Jake "The Snake" Roberts

Base: Bret Hart
Remove Everything then
Appearance: Head: Facial Hair: Moustache1(Brown)
Appearance: Head: Hair: **Default**
Appearance: Upperbody: Left&Right Arm: Wrist: Tape (White, move To Bottom)
Appearance: Lowerbody: Pelvis: Tights: Flame (Blue)
Appearance: Lowerbody: Left&Right Leg: Knee and Boot: Standard5 (Blue) and
Snake (Brown)
(I added light hair to his body.)
Fighting Style: Scientific
Finisher: Bent Over: Front: DDT or Impact DDT
Profile
Full Name: Jake Roberts
Short Name: Jake
Nickname: The Snake
Finisher: DDT (I used Impact DDT)
Hometown: Stone Mountain, GA
Crowd: Loved
Manager: None
Music: Mr. Fuji
Height: 6'5"
Weight: 250 lbs

  0================================0
 / 7.) Frequently Asked Questions /|
0================================0 0
| 7.) Frequently Asked Questions |/
0================================0

Q: Is it possible to use the Legion of Doom's team-up finisher, the Doomsday
Device?
A: Yes.
Opponent Standing Dizzy near corner, facing out --> call in your partner -->
double grapple from behind.  It's tough to do.

Q: I've found [insert wrestler's name here] in this game!  Here's how you do
it:
A: Don't e-mail me with stupid stuff like that.  There are 42 Legends in this
game, no more, no less.  There will be more Legends in Legends of Wrestling
2.

Q. Legends of Wrestling 2?
A. Yes.

Q. How many more Legends?  Any confirmed?
A. There will be 22 more Legends in the game, and Andre the Giant, Big John
Studd, Hacksaw Jim Duggan, "Rowdy" Roddy Piper, Sid Justice, The Grand
Wizard, Bobby "the Brain" Heenan, and The British Bulldog Davey Boy Smith
have been confirmed to be among these 20.  Rob Van Dam will be removed, but
you can still make him in the CAL section.

  0=============0
 / 8.) Credits /|
0=============0 0
| 8.) Credits |/
0=============0

 ~ Acclaim for this incredible game.
 ~ CJayC for this outstanding site.
 ~ Prima's official strategy guide, where I took some background info about
some Legends.
 ~ fLaMiNg rUbLe for allowing me to put some of his CALs here.  His are
specially noted in the section.  Visit his website:
http://www.flamingcals.cjb.net

  0======================0
 / 9.) Copyright Notice /|
0======================0 0
| 9.) Copyright Notice |/
0======================0

This FAQ is (c) Copyright 2002 by striker64.  If you notice this FAQ on any
other site other than GameFAQs, it is stolen material.  Notify me
immediately.

  0=================0
 / 10.) Disclaimer /|
0=================0 0
| 10.) Disclaimer |/
0=================0

Legends of Wrestling is copyright 2002 by Acclaim.  All rights reserved.

-END FILE-

View in: